E-Chords
Syd Matters

Obstacles(Chords)

Syd Matters

Key: F
F                   C                        Am 
E|--------------0------------------0---------------------------0------------| 
B|--------1--------1-----1----3-------3---1-----1--------1-------1-----1----| 
G|-----2-----2--------2----------2------2-----2--------0-----0-------0------| 
D|--3-----------------------------------------------------------------------| 
A|-------------------------------------------------3------------------------| 
E|--------------------------------------------------------------------------| 

        C 
E|--------0----------------| 
B|--3---------3---1-----1--| 
G|-----0--------0-----0----| 
D|-------------------------| 
A|-------------------------| 
E|-------------------------| 
F C Am Let's say sunshine for everyone C F Am/D C But as far as I can remember F C Am We've been migratory animals C F Am/D C Living under changing weather F C Am Someday we will foresee obstacles C F Am/D C Through the blizzard, through the blizzard F C Am Today we will sell our uniform C F Am/D C Live together, live together F C Am C F Am/D C (2X) F C Am Someday we will foresee obstacles C F Am/D C Through the blizzard, through the blizzard F C Am Today we will sell our uniform C F Am/D C Live together, live together F C Am We played hide and seek in waterfalls C F Am/D C We were younger, we were younger F C Am We played hide and seek in waterfalls C F Am/D C We were younger, we were younger F C Am We played hide and seek in waterfalls C F Am/D C We were younger, we were younger F C Am We played hide and seek in waterfalls C F Am/D C We were younger, we were younger F C Am Someday we will foresee obstacles C F Am/D C Through the blizzard, through the blizzard F C Am Today we will sell our uniform C F Am/D C Live together, live together

roll up this ad to continue

share this page

See Also: