E-Chords
Subway To Sally

Coda(Chords)

Subway To Sally

roll up this ad to continue

Key: Am
Intro/Verse 

e|-----0--1-0-----------------------------5-------0-----------------------------------------|  
B|----1--------3h5p3--1-----1--3-1-0-----------1------3h5--3-1-----0h1p0h1p0h1p0------------|  
G|---2---------------------2-----------------2----------------------------------------------|  
D|--2---------------------2-----------------------------------------------------------------|  
A|-0----------------------------------------------------------------------------------------|  
E|-----------------------------------0---1-----------0------------0-------------------------| 


e|------5-7-------7-8--------10-8---7h8p7h8p7h8p7--5---5---7-5h7p5---4---------------------|  
B|---1-------------------3------------------------------------------0----------------------|  
G|--2----------4--------2------------------------------------------------------------------|  
D|------------2----------------------------------------------------------------------------|  
A|-0---------------------------------------------------------------2-----------------------|  
E|-----------0---------1------------------------------0------------------------------------| 
VERSE Am Em Schlaf nun meine Schöne, F G es graut der Tag, Am Em noch einmal kämme ich dein Haar F G bis es glänzt wie Seide wunderbar. Am Em Leg dich zur Ruh meine Schöne, F G dein Bett ist gemacht, Am Em bis mein Kuss dich wieder weckt F G Am morgen Nacht.
OUTRO 
e|-------------------------| 
B|-------------------------| 
G|-------------------------| 
D|-------------------------| 
A|-0h1p0h1p0---------------| 
E|-------------------------| 
share this page

See Also: