E-Chords
Stefano Mota

Trégua(Chords)

Stefano Mota

roll up this ad to continue

Key: Bbm
Bbm     Bbm                 Bbm7M 
    É você que tem todos os lares 

Os pares 
  Bbm7                Bb7(9) 
E todas as contradições 

 Gb7M             Ab7 
É você que além dos pesares 
             Db7M 
Consegue sorrir e se surpreender 

   Ebm6/C           F7(13-)            Bbm7 
Só você que sabe bem antes o que é pra ser 
              Bbm7/Ab 
E assim sem ter pena de mim 
Gb7 
Me nega sem trégua 
   F7                  Bbm  Riff 
Já posso até ver o meu fim 

Tab - Riff 

E|------------------------------------------| 
B|------------------------------------------| 
G|------------------------------------------| 
D|------------3-4-3-1-----------------------| 
A|--4-3-1-0-3---------4-3-------------------| 
E|------------------------------------------|
Bbm Bbm7M É você que maltrata a letra Bbm7 Bb7(9) E se encontra na alma de qualquer poema Gb7M Ab7 Sem você a vida seria uma mente Db7M Tão simples de ideias pequenas Ebm6/C F7(13-) Com você meu dias já tinham Bbm7 Seu próprio caminho Bbm7/Ab Gb7 F7 Hoje estou Sentado no mesmo lugar Bbm Riff Onde me deixou
Tab - Riff 

E|------------------------------------------| 
B|------------------------------------------| 
G|------------------------------------------| 
D|------------3-4-3-1-----------------------| 
A|--4-3-1-0-3---------4-3-------------------| 
E|------------------------------------------|
share this page

See Also: