E-Chords
Stefano Mota

Jardim Da Fantasia(Chords)

Stefano Mota

roll up this ad to continue

Key: E
Intro 

Tab - Intro 

E|---------------------------------------------------| 
B|---------------------------------------------------| 
G|---4--6-4-----4--6-4-----------------------4--4----| 
D|---6------6---6------6--6/7--6--4--2--4/6--4----4--| 
A|--------------6------------------------------------| 
E|---0---------------------------------------4-------| 

E|---------------------------------------------------| 
B|---------------------------------------------------| 
G|---6--4--2--1--2/6---1-1---------------------------| 
D|---7--6--4--2--4/4---2---2-------------------------| 
A|---0-----------------------------------------------| 
E|---------------------4-----------------------------| 

E|-------------------------------0-------------------| 
B|-------------------------------0-------------------| 
G|---2--1-------------1--------2---------------------| 
D|---2----4--2------2---2----1-----------------------| 
A|---0-------2-2/4--2------2-------------------------| 
E|---------------------------------------------------| 
E7M(9) B/D# Bem te vi, bem te vi A7M G#m7 Andar por um jardim em flor A7M G#m7 Chamando os bichos de amor A7M A/B E7M(9) A/B B7(9-) Tua boca pingava mel E7M(9) B/D# Bem te quis, bem te quis A7M G#m7 E ainda quero muito mais A7M G#m7 Maior que a imensidão da paz A7M A/B E7M(9) E bem maior que o sol G#m7 Onde estás? A7M G#m7 Voei por este céu azul A7M G#m7 Andei estradas do além A7M A/B C#m7(9) Onde estará meu bem? G#m7 Onde estás? A7M G#m7 Nas nuvens ou na insensatez A7M G#m7 Me beije só mais uma vez A7M A/B E7M(9) Depois volte prá lá
  B7    A/C#  B/D# 
E|---------------------------------------------------| 
B|---------------------------------------------------| 
G|----2----2-----4-----------------------------------| 
D|----1----2-----4-----------------------------------| 
A|--2----4-----6-------------------------------------| 
E|---------------------------------------------------| 
E7M(9) B/D# Bem te vi, bem te vi A7M G#m7 Andar por um jardim em flor A7M G#m7 Chamando os bichos de amor A7M A/B E7M(9) A/B B7(9-) Tua boca pingava mel E7M(9) B/D# Bem te quis, bem te quis A7M G#m7 E ainda quero muito mais A7M G#m7 Maior que a imensidão da paz A7M A/B E7M(9) E bem maior que o sol G#m7 Onde estás? A7M G#m7 Voei por este céu azul A7M G#m7 Andei estradas do além A7M A/B C#m7(9) Onde estará meu bem? G#m7 Onde estás? A7M G#m7 Nas nuvens ou na insensatez A7M G#m7 Me beije só mais uma vez A7M A/B E7M(9) Depois volte prá lá
E|---------------------------------------------------| 
B|---------------------------------------------------| 
G|---4--6-4-----4--6-4------------6----------4--4----| 
D|---6------6---6------6--6/7--9-----9--7-0--4----4--| 
A|--------------6------------------------------------| 
E|---0---------------------------------------4-------| 

E|---------------------------------------------------| 
B|---------------------------------------------------| 
G|---6--4--2--1--2/6---1-1---------------------------| 
D|---7--6--4--2--4/4---2---2-------------------------| 
A|---0-----------------------------------------------| 
E|---------------------4-----------------------------| 

E|----------------------------0----------------------| 
B|--------------------------0------------------------| 
G|---2--1-----------------1--------------------------| 
D|---2----4--2----------2----------------------------| 
A|---0-------2-2/4----2------------------------------| 
E|------------------0--------------------------------|
share this page

See Also: