E-Chords
Stars In Stereo

The Broken(Chords)

Stars In Stereo

roll up this ad to continue

Key: D
INTRO 

Electric 1 
E|-----------------14--12---------------------14--12---------| 
B|-------------------------16--14--14-----------------16-----| 
G|-13-13-13-13h15----------------------11/16--------------13-| 
D|-----------------------------------------------------------| 
A|-----------------------------------------------------------| 
D|-----------------------------------------------------------| 

Electric 2 
E|------------| 
B|------------| 
G|------------| 
D|-6--9--4--2-| 
A|-6--9--4--2-| 
D|-6--9--4--2-| 

VERSE 

(nothing) 

Pre-Chorus 

Electric 1+2 
E|--------------------------| 
B|--------------------------| 
G|-----------------------pm-| 
D|-9\6--9-4-2----6--9----11-| 
A|-9\6--9-4-2----6--9----11-| 
D|-9\6--9-4-2----6--9----11-| 

Chorus 

Electric 1 
E|---------------| 
B|---------------| 
G|-13--11--6--13-| 
D|-x---x---x--x--| 
A|-11--9---4--11-| 
D|---------------| 

Electric 2 
E|------------| 
B|------------| 
G|------------| 
D|-6--9--4--2-| 
A|-6--9--4--2-| 
D|-6--9--4--2-| 

POST  

(play intro, then...) 

Electric 1+2 
E|-------| 
B|-------| 
G|-------| 
D|-6-6-6-| 
A|-6-6-6-| 
D|-6-6-6-| 

PLAY VERSE 

PLAY Pre-Chorus 

PLAY Chorus 

PLAY POST 

PRE-BRIDGE 

Electric 1+2 
E|------| 
B|------| 
G|------| 
D|-11-1-| 
A|-11-1-| 
D|-11-1-| 

BRIDGE 
(Nothing) 

Pre-Chorus 

Electric 2 
E|----| 
B|----| 
G|----| 
D|-11-| 
A|-11-| 
D|-11-| 

PLAY Chorus 

PLAY PRE-BRIDGE 
share this page

See Also: