E-Chords
St. Vincent

Laughing With A Mouth Of Blood(Chords)

St. Vincent

Key: E

Intro and Chorus riff 

eb|-------------------------------------| 
Bb|-------------------------------------| 
Gb|----------------------2-1------------| 
Db|-----6s4--2---2-----2-----2---2------| 
Ab|---2--------2------------------------| 
Eb|-0----------------2---------2--------| 

eb|-----------------------------------| 
Bb|-----------------------------------| 
Gb|-----4-2-4-2-0-2--0-------0-2-0----| 
Db|---0----------------2-0-2-------2--| 
Ab|-----------------------------------| 
Eb|-3---------------------------------| 

    Chords 

eb|----------------------------------| 
Bb|----------------------------------| 
Gb|-1---2--------5-------7-----------| 
Db|-2---2--------5-------7-----------| 
Ab|-2--------------------------------| 
Eb|-0---2--------5-------7-----------| 

E F#m7 Am7 Bm7 E Just like an amnesiac, Trying to get my senses back F#m7 Oh, where did they go? E Laughing with a mouth of blood, From a little spill I took F#m7 Oh, what are you laughing at? E See I trade in my plot of land, For a plane to anywhere F#m7 Oh, where do you go? E And I can't see the future, But I know its got big plans for me F#m7 Oh what does it see? Chorus Riff ( E F# G A ) All of my old friends aren't so friendly All of my old haunts are now all haunting me E Holed up at the motel With the televangelist F#m7 Oh what did he say? E At the bottom of the swimming pool With all the water out of it F#m7 How'd you get in there? E If it's any consolation prize It's to my next of kin F#m7 Oh to be so cruel E and I can't see the future But I know it's watching me F#m7 Oh what will it see? Chorus Riff All of my old friends aren't so friendly All of my old haunts are now all haunting me Am7 Tell my sister that I miss her Bm7 Tell my brother that it gets much easier Am7 Tell my sister that I miss her Bm7 Tell my brother that it gets much easier Chorus Riff All of my old friends aren't so friendly And all of my old haunts are now all haunting me

roll up this ad to continue

share this page

See Also: