E-Chords
Spy vs Spy

Clarity of Mind(Chords)

Spy vs Spy

roll up this ad to continue

Key: D
D=X,X,0,7,7,5 E=X,X,0,4,5,4 C#m=X,X,X,1,2,0
Intro: D E D E D E C#m D (2x) D D A Been years gone by, E D I've just abused my mind A E My body's paid the price, D Come to a fork A E I can go up or down, D Or use my mouth too much, A E Oh Lord, protect my words
D E - D E - D E Reality's a matter C#m D Of a clarity of mind
e|-------------------------------------------------------------------| 
B|--3-2---------------------3-2-3/5-3-2-----------3-2----------------| 
G|------2-------------2-4-2-------------2-2h4-2-2-----4-2------------| 
D|--------2-2h4-2-2-4-------------------------------------4-2-2h4--2-| 
A|-------------------------------------------------------------------| 
E|-------------------------------------------------------------------| 

e|----------------------------------------------------0-| 
B|--------3-2-3/5-3-2---------------------------------3-| 
G|------2-------------2-4-2---2-2-4-2-4-2-------------2-| 
D|--2-4---------------------4-------------------------0-| 
A|------------------------------------------------------| 
E|----------------------------------------2-0-5-4-0-----| 
D A E Take the things away, D I like the look of that, A E It makes my mouth water, D Lift in the air A E All the things I've said D You know they don't all add A E Now, who's a muddle head...
e|--------------------------------------------------------------------| 
B|--3--2---------------------3-2-3/5-3-2-----------3-2----------------| 
G|-------2-------------2-4-2-------------2-2h4-2-2-----4-2------------| 
D|---------2-2h4-2-2-4-------------------------------------4-2-2h4--2-| 
A|--------------------------------------------------------------------| 
E|--------------------------------------------------------------------| 

e|-----------------------------------------------------------2-| 
B|------------3-2-3/5-3-2------------------------------------3-| 
G|------2-4-2-------------2-2h4-2---2-2-4-2-4-2--------------2-| 
D|--2-4---------------------------4--------------------------0-| 
A|-------------------------------------------------------------| 
E|-----------------------------------------------2-0-5-4-0-----| 
D E - D E - D E Reality's a matter C#m D Of a clarity of mind
D E A
share this page

See Also: