E-Chords
Sportfreunde stiller

Dem Fritz Sein Wetter(Chords)

Sportfreunde stiller

Key: D


Intro (0:06) 

   D                 G                     D 
e---------------------------------------------| 
b---------------------------------------------| 
g---------------------------------------------| 
d--7---7-7--5-7-9-7--7-7-7-5-5-4-4-2-2-4---0--|x2 
a---------------------------------------------| 
e---------------------------------------------| 
Verse (0:27) A Es schüttet wie aus Eimern G Klar bin ich dabei, mann D Da gibt es nichts zu überlegen D Gibt nichts besseres als einen Kick im Regen Verse (0:39) A Das T-Shirt klebt am Körper G Kann kaum glauben, dass meiner fast zerstört war D Ich hab die zweite Luft D Vom frischen Rasenduft Chorus (0:48) A G D Das war auch dem Fritz sein Wetter A G D And Beckham kicks it then even better A G D Das war auch dem Fritz sein Wetter A G D And Beckham kicks it then even better Bridge (1:09)
   D                 G                     D 
e---------------------------------------------| 
b---------------------------------------------| 
g---------------------------------------------| 
d--7---7-7--5-7-9-7--7-7-7-5-5-4-4-2-2-4---0--|x2 
a---------------------------------------------| 
e---------------------------------------------| 
Verse (1:31) A Es giesst wie aus Kübeln G Da sollte man nicht zuviel grübeln D Es lässt sich so gut schlittern D Bei Wolkenbruch und Gewittern Verse (1:42) A Der Regen peitscht mir ins Gesicht G Ich bin berauscht und merk es nicht D Ich hab ein guten Lauf D Macht die Schleussen auf Chorus (1:52) A G D Das war auch dem Fritz sein Wetter A G D And Beckham kicks it then even better A G D Das war auch dem Fritz sein Wetter A G D And Beckham kicks it then even better
Solo (2:13) 

e------------------------------| 
b------------------------------| 
g--11--11--14--11--14--11--14--| 
d--11--11--14--11--14--11--14--| 
a---9---9--12---9--12---9--12--| 
e------------------------------| 
Verse (2:24) F# Wenn die Wassermassen runterprasseln A F# Auf den Rasen, den nassen A F# Und die Torhüter gerne mal daneben fassen A Kann man aus der Ferne mal einen Pfund rauslassen Chorus (2:35) A G D Das war auch dem Fritz sein Wetter A G D And Beckham kicks it then even better A G D Das war auch dem Fritz sein Wetter A G D And Beckham kicks it then even better
Outro (2:59) 

   D                 G 
e---------------------------------------------| 
b---------------------------------------------| 
g---------------------------------------------| 
d--7---7-7--5-7-9-7--7-7-7-5-5-4-4-2-2-4---0--|x3 
a---------------------------------------------| 
e---------------------------------------------|

roll up this ad to continue

share this page

See Also: