E-Chords
Souls

Mukhorito Jibon(Chords)

Souls

Key: G
 

| /   slide up 
| h   hammer-on 
| p   pull-off 


e|--3--5--3--5--3--7h8p7----3--3--5--3--5--3--7h8p7---3--3-------------------| 
B|--3-----------------------3--3----------------------3--3-------------------| 
G|--4-----------------------4--4----------------------4--4-------------------| 
D|--5-----------------------5--5----------------------5--5-------------------| 
A|--5-----------------------5--5----------------------5--5-------------------| 
E|--3-----------------------3--3----------------------3--3-------------------| 

e|--------------------------------------------------------------3--3--3------| 
B|--------------------------------------------------------------3--3--3------| 
G|------------7--9--7-------------7--9--7-------------7--9--7---4--4--4------| 
D|--9------9------------9------9------------9------9------------5--5--5------| 
A|-----10------------------10------------------10---------------5--5--5------| 
E|--------------------------------------------------------------3--3--3------| 
G G Ei mukhorito jiboner cholar bake Bm C ojana hajar koto kajer bhire C Am chotto belar shoto rong kora mukh D G shur tole ajo ai monke ghire
e|--------------------------------------------------------------3--3--3------| 
B|--------------------------------------------------------------3--3--3------| 
G|------------7--9--7-------------7--9--7-------------7--9--7---4--4--4------| 
D|--9------9------------9------9------------9------9------------5--5--5------| 
A|-----10------------------10------------------10---------------5--5--5------| 
E|--------------------------------------------------------------3--3--3------| 

e|---------------------------------------------------------------------------| 
B|-----------------12--12--12------12--15--------------15--15--15--14--14--12| 
G|-12--12------12--------------14----------12--12--12------------------------| 
D|---------12----------------------------------------------------------------| 
A|---------------------------------------------------------------------------| 
E|---------------------------------------------------------------------------| 

e|---------------------------------12----------------------------------------| 
B|---------------------12--13--15------15--13--15--13--13--12h13--10h12--8---| 
G|--12/14--14--14--14--------------------------------------------------------| 
D|---------------------------------------------------------------------------| 
A|---------------------------------------------------------------------------| 
E|---------------------------------------------------------------------------| 
G G jhinuk shamiuke bhora balur chore Bm Bm dhew er shathe nechechhi C Am rongin shopne gatha sritir mala D G saikate fele eshechi G C ore chhute jai cholo G G shei shagor tire D Am ore khuje nei cholo C G fele asha mukto hire G G Ei mukhorito jiboner cholar bake Bm C ojana hazar koto kajer bhire C Am chotto belar shoto rong kora mukh D G shur tole ajo ai monke ghire
e|--------------------------------------------------------------3--3--3------| 
B|--------------------------------------------------------------3--3--3------| 
G|------------7--9--7-------------7--9--7-------------7--9--7---4--4--4------| 
D|--9------9------------9------9------------9------9------------5--5--5------| 
A|-----10------------------10------------------10---------------5--5--5------| 
E|--------------------------------------------------------------3--3--3------| 

e|---------------------------------------------------------------------------| 
B|-----------------12--12--12------12--15--------------15--15--15--14--14--12| 
G|-12--12------12--------------14----------12--12--12------------------------| 
D|---------12----------------------------------------------------------------| 
A|---------------------------------------------------------------------------| 
E|---------------------------------------------------------------------------| 

e|---------------------------------12----------------------------------------| 
B|---------------------12--13--15------15--13--15--13--13--12h13--10h12--8---| 
G|--12/14--14--14--14--------------------------------------------------------| 
D|---------------------------------------------------------------------------| 
A|---------------------------------------------------------------------------| 
E|---------------------------------------------------------------------------| 
G G ratrite jochonay daoay boshe Bm Bm mojar golpo koto shunechi C Am dhulu dhulu akhite abir mekhe D G shopner jaal bunechhi G C ore shei to bhalo G G chokh duto bujhe chile D Am ore shei to bhalo C G shobkichu bhule chile G G Ei mukhorito jiboner cholar bake Bm C ojana hazar koto kajer bhire C Am chotto belar shoto rong kora mukh D G shur tole ajo ai monke ghire

roll up this ad to continue

share this page

See Also: