E-Chords
Soulfarm

Unwind(Chords)

Soulfarm

roll up this ad to continue

Key: G
Capo on 4th fret



Intro 
  Am         | G         | F          | G 
e|-----------5-----------3------------1----------3-| 
B|--------5------------3------------1----------3---| 
G|----5------------4------------2-----------4------| 
D|-7-----------5------------3-----------5----------| 
A|-------------------------------------------------| 
E|-------------------------------------------------| 
Am G F G Let the moon shine bright above us Am G F G And let our spirits be free Am G F G Let all our troubles be forgotten Am G F G And our passions like waves in the sea Am G F G Oh, And know how to handle Am G F G When things get to be too much Am G F G Yea let our friendships be forever Am G F G Let us never fall out of touch
C G Am Em A-ha-aye - turn on your lights F G Turn on your minds C G Am Em F A-ha-aye I'm gonna leave this world behind G C Let it all Unwind Am G F G And let our days be bright and easy Am G F G And let our nights be wild and long Am G F G If I should ever make a fool of myself Am G F G Let it be when I'm singing a song
Chorus C G Am Em A-ha-aye - turn on your lights F G Turn on your minds C G Am Em F A-ha-aye I'm gonna leave this world behind G C Let it all Unwind Solo Am G F G And let us be over the top Am G F G And never slow down, never stop. Am G F G Out on the streets, between the sheets Am G F G O, Let the music move our feet Am G F G Yea, and let us be over the top
C G Am Em A-ha-aye, turn on your lights F G Turn on your minds, C G Am Em F A-ha-aye I'm gonna leave this world behind G C Let it all Unwind
     Am           G               F              G 
e|-----------5-----------3------------1----------3-| 
B|--------5------------3------------1----------3---| 
G|----5------------4------------2-----------4------| 
D|-7-----------5------------3-----------5----------| 
A|-------------------------------------------------| 
E|-------------------------------------------------|
share this page

See Also: