E-Chords
Something For Kate

Like Bankrobbers(Chords)

Something For Kate

roll up this ad to continue

 By Something For Kate 
Tabbed By Stephen Dubsky 
 
chords are only written once, riffs written one after the other with no labels 
 
 
E---||------------------------------------0----||----------------------- 
B---||----1---1---1---1---1---1---1---1---0----||----------------------- 
G---||*---2---2---2---0---2---0---2---2---0---*||----------------------- 
D---||*---3---3---3---3---3---3---3---3---2---*||----------------------- 
A---||------------------------------------2----||----------------------- 
E---||------------------------------------0----||----------------------- 
 
 
 
E-----------------------------------------------||-------|-------|------ 
B-----------------------------------------------||-------|-------|------ 
G---9---------------9---------------9-----------||---5---|-------|------ 
D---9---9---7---9---9---9---7---9---9---9---7---||---2---|---3---|------ 
A---7---9---7---9---7---9---7---9---7---9---7---||---3---|---3---|------ 
E-------7---5---7-------7---5---7-------7---5---||-------|---1---|------ 
 
 
 
E-------|---0---||-------------------||-------|------------------------- 
B-------|---0---||-------------------||-------|------------------------- 
G-------|---0---||-------------------||---5---|------------------------- 
D---3---|---2---||-------------------||---2---|---3--------------------- 
A---3---|---2---||-------------------||---3---|---3--------------------- 
E---1---|---0---||-------------------||-------|---1--------------------- 
 
 
 
E---||----------------|---------------------------|---------------|----- 
B---||----------------|---------------------------|---------------|----- 
G---||*---5-------4---|---------------------------|---5-------4---|----- 
D---||*---2---2---4---|---2-----------2-----------|---2---2---4---|----- 
A---||----3---2---2---|-------2---3-------3---2---|---3---2---2---|----- 
E---||--------0-------|---------------------------|-------0-------|----- 
 
 
 
E----------------------------||-------------------|--------------------- 
B----------------------------||---1---1-----------|--------------------- 
G---------------------------*||---0---2-----------|--------------------- 
D---2-----------2-----------*||---2---2---2---3---|--------------------- 
A-------2---3-------3---2----||---3---0---2---3---|--------------------- 
E----------------------------||-----------0---1---|--------------------- 
 
 
 
E--------------------||------------------------------------------------- 
B---1---1------------||---------------6---3----------------------------- 
G---0---2-----------*||------------------------------------------------- 
D---2---2---2---3---*||---7---5---7---7---4----------------------------- 
A---3---0---2---3----||---7---5---7---8---5----------------------------- 
E-----------0---1----||---5---3---5------------------------------------- 
 
 
 
E---||---------------------------------||------------------------------- 
B---||----1---3---------------6---3----||------------------------------- 
G---||*---0---------------------------*||------------------------------- 
D---||*---2---4---7---5---7---7---4---*||------------------------------- 
A---||----3---5---7---5---7---8---5----||------------------------------- 
E---||------------5---3---5------------||------------------------------- 
 
 
share this page

See Also: