E-Chords
Solomon Burke

None Of Us Are Free(Chords)

Solomon Burke

roll up this ad to continue

Key: Em
Capo on 1st fret
 
 

Intro: 
  Em                                 G                               A 
e|-----------------------------------------------------------------------0-0-| 
B|-----------------------------------------------------------------------2-2-| 
G|-----------------------------------------------------------------------2-2-| 
D|----0-2------5--2--0--2----------------0--2----5--2--0--2--------------2-2-| 
A|-----------------------------------------------------------------------0-0-| 
E|-0-----------------------------------3-------------------------------------| 

   D7              Em 
e|------2-2------------------------------------| 
B|------1-1------------------------------------| 
G|------2-2------------------------------------| 
D|------0-0-------------0--2-----5--2--0--2----| 
A|------0-0------------------------------------| 
E|--------------------3------------------------| 
The two cords hit on 3 &. 
Em Well you better listen my sister's and brothers, G 'cause if you do you can hear A D7 Em There are voices still calling across the years. and they're all crying across the ocean, G and they're cryin across the land, A D7 Em and they will till we all come to understand.
Em None of us are free. G None of us are free. A D7 None of us are free, one of us are chained. Em None of us are free.
Verse Em And there are people still in darkness, G and they just can't see the light. A D7 Em If you don't say it's wrong then that says it right. G We got try to feel for each other, let our brother's know that we care. A D7 Em Got to get the message, send it out loud and clear.
Em None of us are free. G None of us are free. A D7 None of us are free, one of us are chained. Em None of us are free.
Verse Em G It's a simple truth we all need, just to hear and to see. A D7 None of us are free, one of us is chained. Em None of us are free. Bridge A Em Now I swear your salvation isn't too hard too find, G A Em None of us can find it on our own. A Em We've got to join together in sprirt, heart and mind. G A B7 So that every soul who's suffering will know they're not alone.
Em None of us are free. G None of us are free. A D7 None of us are free, one of us are chained. Em None of us are free.
  Em                                 G                               A 
e|-----------------------------------------------------------------------0-0-| 
B|-----------------------------------------------------------------------2-2-| 
G|-----------------------------------------------------------------------2-2-| 
D|----0-2------5--2--0--2----------------0--2----5--2--0--2--------------2-2-| 
A|-----------------------------------------------------------------------0-0-| 
E|-0-----------------------------------3-------------------------------------| 

   D7              Em 
e|------2-2------------------------------------| 
B|------1-1------------------------------------| 
G|------2-2------------------------------------| 
D|------0-0-------------0--2-----5--2--0--2----| 
A|------0-0------------------------------------| 
E|--------------------3------------------------| 
Verse Em If you just look around you, G your gonna see what I say. A D7 Em Cause the world is getting smaller each passing day. Now it's time to start making changes, G and it's time for us all to realize, A D7 Em that the truth is shining real bright right before our eyes.
Em None of us are free. G None of us are free. A D7 None of us are free, one of us are chained. Em None of us are free.
share this page

See Also: