E-Chords
Soldiers Of Jah Army

No Done Yet(Chords)

Soldiers Of Jah Army

roll up this ad to continue

Key: Bm
Intro: (Bm  G  D  A) 2x 

E|-------------5-3~--5-5-3-2-----3-3-2--------------------------| 
B|-----------3---------------3~--------3-2~--5b7r5-5b7r5-3------| 
G|---4~----4-----------------------------------------------4~---| 
D|--------------------------------------------------------------| 
A|--------------------------------------------------------------| 
E|--------------------------------------------------------------| 

E|-------------5-3~--5-5-3-2-----3-3-2-------5-7----------------| 
B|-----------3---------------3~--------3-2~---------------------| 
G|---4~----4----------------------------------------------------| 
D|--------------------------------------------------------------| 
A|--------------------------------------------------------------| 
E|--------------------------------------------------------------| 
Bm G It's hard for me when I think about the things that never been D A They keep coming back again like they got something to prove Bm G I love my memories, but they are awake, controlling me at times D A And I'm so lost without you, yeah, yeah
(riff refrão) 
E|-----------------|      |-----------------------------------------------------| 
B|-8/10/7-10/12/10-|      |-8/10/7-7/8---8/10/7-10/12/10---8/10/7-5/7/5---5/6~--| 
G|-----------------| 4x   |-----------------------------------------------------| 
D|-----------------|      |-----------------------------------------------------| 
A|-----------------|      |-----------------------------------------------------| 
E|-----------------|      |-----------------------------------------------------|
G Bm And I can't get far from it, and from what went wrong A Bm And I know it's stupid cause its been so long G Bm The farther I get away, the more that I hold on A C#7 It's just this feeling I get, it's like I'm not done yet I'm not done yet (Bm G D A) 2x Bm G I think about those times when we were young, D And everything was so brand new A And our words were so true you Bm G Looked into my eyes, that one last time D A If I had known back then, would I be living with today? You might have stayed, but... G Bm I can't get far from it, and from what went wrong A Bm And I know it's stupid cause it's been so long G Bm The farther I get away, the more that I hold on A C#7 It's like I try to forget, somehow I'm not done yet I'm not done yet (Bm G D A) 2x Bm G It's hard for me when I think about the things that never been D A They keep coming back again like they got something to prove It's like I'm not done yet I'm not done yet... (Bm G D A)
share this page

See Also: