E-Chords
Soldiers Of Jah Army

Mother Earth(Chords)

Soldiers Of Jah Army

roll up this ad to continue

Key: G
G                Am                  Em       Am  F 
They should have known this couldn't last forever 
                 Am                Em      Am 
They should have known this cannot last so long 
                       Am               Em         Am  F 
And yes they should of known when we go murder our mother 
         Am              Em                    Am 
The consequence from the father is going to be strong 


Am Em Am F I know, I know, only love will stand Am Em Well the wickedness come, wickedness go Am Only love will stand
Am Em They should have seen when we go raping Am F Our mother Earth who was so fresh and green Am Em That what we gonna give will be what we getting Am And what we sow will be what we reap Am Em If you take the blood out from her vein Am F Things they never ever gonna be the same Am Em Who will repair who will bear the blame Am For the cost of this dangerous Babylon game
Am Em Am F I know, I know, only love will stand Am Em Well the wickedness come, wickedness go Am Only love will stand
SOLO(1:45): 

e|---------------------------------------------------------------------------| 
B|------------------6-6-6----------------------------------------------------| 
G|---7/9\7-5-7-7-----------9-7-5---7b------5----5----5----5h7p5--9-10-9-12-9-| 
D|--------------------------------------5h7--5h7--5h7--5h7-------------------| 
A|---------------------------------------------------------------------------| 
E|---------------------------------------------------------------------------| 

e|---------------------------------------------------------------------------| 
B|-----------10-12-10-13-10-12/13--------------------------------------------| 
G|-7----7b-------------------------12-10-10-9--------------------------------| 
D|----10---------------------------------------------------------------------| 
A|---------------------------------------------------------------------------| 
E|---------------------------------------------------------------------------| 
(2:02) Am Em Am F Am Em Am Am Em They should have known SOJA would come Am F Am and spread the message, they should have known Em Am the righteous won't sit and watch Am Em They should have known InI work for the father Am F Am I will defend my mother, they should have known Em Am But know they did not.
Am Em Am F I know, I know, only love will stand Am Em Well the wickedness come, wickedness go Am Only love will stand
Am Em Am F I know, I and I know, only love will stand Am Em I and I know, I and I know Am Only love will stand
share this page

See Also: