Social Distortion

Ring Of Fire(Chords)

Social Distortion

Key: A#

roll up this ad to continue

	        
 A#5     F5    A#5      F5  A#5 
e|------------------------------------------------| 
B|------------------------------------------------| 
G|------------------------------------------------| 
D|------------------------------------------------| 
A|-8--8-8-8-10-6-8--5--5-5-6-3-5-5-5-5-5----------| 
E|------------------------------------------------| 

 A#5       F5  A#5             F5  A#5 
e|------------------------------------------------| 
B|------------------------------------------------| 
G|------------------------------------------------| 
D|------------------------------------------------| 
A|-8--8-8-8-10-6-8-8/16--5--5-5-6-3-5-5-5-5-5-----| 
E|------------------------------------------------| 
A#5 F5 A#5 Love is a burning thing A#5 F5 A#5 and it makes a firery ring A#5 F5 A#5 bound by wild desire A#5 F5 A#5 I fell in to a ring of fire F5 D#5 A#5 I fell in to a burning ring of fire F5 I went down,down,down D#5 A#5 and the flames went higher A#5 And it burns,burns,burns F5 A#5 The ring of fire F5 A#5 The ring of fire A#5 F5 A#5 The taste of love is sweet A#5 F5 A#5 when hearts like our´ meet A#5 F5 A#5 I fell for you like a child A#5 F5 A#5 oh, but the fire went wild F5 D#5 A#5 I fell in to a burning ring of fire F5 I went down,down,down D#5 A#5 and the flames went higher A#5 And it burns,burns,burns F5 A#5 The ring of fire F5 A#5 The ring of fire Let it burn!
 A#5     F5    A#5      F5  A#5 
e|------------------------------------------------| 
B|------------------------------------------------| 
G|------------------------------------------------| 
D|------------------------------------------------| 
A|-8--8-8-8-10-6-8--5--5-5-6-3-5-5-5-5-5----------| 
E|------------------------------------------------| 

 A#5       F5  A#5             F5  A#5 
e|------------------------------------------------| 
B|------------------------------------------------| 
G|------------------------------------------------| 
D|------------------------------------------------| 
A|-8--8-8-8-10-6-8-8/16--5--5-5-6-3-5-5-5-5-5-----| 
E|------------------------------------------------| 
F5 D#5 A#5 I fell in to a burning ring of fire F5 I went down,down,down D#5 A#5 and the flames went higher A#5 And it burns,burns,burns F5 A#5 The ring of fire F5 A#5 The ring of fire A#5 F5 A#5 The taste of love is sweet A#5 F5 A#5 when hearts like our´ meet A#5 F5 A#5 I fell for you like a child A#5 F5 A#5 oh, but the fire went wild F5 D#5 A#5 I fell in to a burning ring of fire F5 I went down,down,down D#5 A#5 and the flames went higher A#5 And it burns,burns,burns F5 A#5 The ring of fire F5 A#5 The ring of fire One more time! F5 D#5 A#5 I fell in to a burning ring of fire F5 I went down,down,down D#5 A#5 and the flames went higher A#5 And it burns,burns,burns F5 A#5 The ring of fire F5 A#5 The ring of fire F5 A#5 The ring of fire F5 A#5 The ring of fire.
e|------------------------------------------------| 
B|------------------------------------------------| 
G|------------------------------------------------| 
D|------------------------------------------------| 
A|--8-8-8-8-8--8-8-10--6--8-----------------------| 
E|------------------------------------------------|

Written by June Carter / Merle Kilgore

See Also: