E-Chords
Smash Mouth

I'm a believer(Chords)

Smash Mouth

Watch the video lesson
Key: F#
Intro 
 
E-------------------------------------------------- 
B-------------------------------------------------- 
G-------------------------------------------------- 
D-------2------2------2------2--------------------- 
A---2h4----2h4----2h4----2h4----2h4p2p0------------ 
E-------------------------------------------------- 
F# C# F# F# I thought love was only true in fairy tales F# C# F# F# Meant for someone else but not for me B F# B F# Love was out to get me, that's the way it seemed B F# C# Disappointment haunted all my dreams F# B F# And then I saw her face B F# B F# Now I'm a believer B F# B F# B F# B F# Not a trace of doubt in my mind B F# B I'm in love F# I'm a believer E I couldn't leave her if I tried. Intro I thought love was more or less a giving thing More I gave the less I've got, oh yeah What's the use in trying, all you get is pain When I wanted sunshine I got rain And then I saw her face Now I'm a believer Not a trace of doubt in my mind I'm in love I'm a believer I couldn't leave her if I tried. Solo
E---------------------------------------------- 
B---------------------------------------------- 
G---------------------------------------------- 
D----2-3-4-4-4-2------2-3-4-4-4-2------2-3-4/-- 
A--4-------------4--4-------------4--4--------- 
E---------------------------------------------- 
 
E---------------------------------------------- 
B---------------------------------------------- 
G---------------------------2------------------ 
D----2-3-4-4-4-2------2-3-4---4-3-2-2---------- 
A--4-------------4--4-----------------4-3-2---- 
E----------------------------------------------
What's the use in trying, all you get is pain When I wanted sunshine I got rain. And then I saw her face Now I'm a believer Not a trace of doubt in my mind I'm in love I'm a believer I couldn't leave her if I tried. Intro 3x Then I saw her face Now I'm a believer Not a trace of doubt in my mind Now I'm a believer, yeah yeah yeah yeah yeah yeah Now I'm a believer (then I saw her face) Now I'm a believer (not a trace, of doubt in my mind) I'm a believer (Now I'm a believer...)

roll up this ad to continue

share this page

See Also: