E-Chords
Sleeze Beez

Heroes Die Young(Chords)

Sleeze Beez

roll up this ad to continue

Key: E
Intro + Verse: 
E|------------------------------.-----------| 
B|---------------------------7--5-----------| 
G|------------------------/7----------------| 
D|--5\--------------------------------------| 
A|--5\-----.-.--.-.-------------------------| 
E|--3\-----2-3--2-3-------------------------| 

E|------------------------------------------| 
B|------------------------------------------| 
G|-------------------------7-7-x-x-7-7------| 
D|--5\---------------------7-7-x-x-7-7------| 
A|--5\-----.-.--.-.--------5-5-x-x-5-5------| 
E|--3\-----2-3--2-3-------------------------| 

E|------------------------------.-----------| 
B|---------------------------7--5-----------| 
G|------------------------/7----------------| 
D|--5\--------------------------------------| 
A|--5\-----.-.--.-.-------------------------| 
E|--3\-----2-3--2-3-------------------------| 

E|------------------------------------------| 
B|------------------------------------------| 
G|------------------------------------------| 
D|--5\--------------------------------------| 
A|--5\-----.-.--.-.-------.-.-.-------------| 
E|--3\-----2-3--2-3-------2-3-2-------------| 
Pre-Chorus E F#-G We need a hero. Hold on don't let go E C some kind of hero. I know. We know
D C-D If you want it, come and get it C Heroes die young - heroes die young D C-D It's only natural. You're like a animal C E Heroes die young - heroes die young
E|------------------------------| 
B|--------------6---------------| 
G|--2-2---2-2---5---------------| 
D|--2-2---2-2---3--------5------| 
A|--0-0---0-0----------5---5----| 
E|-------------------3----------|
share this page

See Also: