E-Chords
Skye Sweetnam

Tangled up in me(Chords)

Skye Sweetnam

Key: C
Intro 
  
 C       E         Am       F 
E|--------------------------------------| 
B|-----5-------9------------------10----| 
G|---------------9-------5-----------10-| 
D|---3-------9-----------------10-------| 
A|-3-------7-----------7-----8----------|  
E|-------------------5------------------| 
 
Verse 
Guitar 1:					 
E|--------------------------------------| 
B|-----5-------9------------------10----| 
G|---------------9-------5-----------10-| 
D|---3-------9-----------------10-------| 
A|-3-------7-----------7-----8----------|  
E|-------------------5------------------|  
 
E|-------------------| 
B|---------------5---| 
G|-----7---7---7-----| 
D|---7---7---7-------| 
A|-5-----------------|  
E|-------------------| 
Guitar 2: C E Am You wanna know more more more about me F C E Am I'm the girl who's kicking the coke machine F C E Am D I'm the one that's honking at you cause I left late again Chorus --------- FF FF C E Hey Hey Hey Am F C Could you see I want you by the way I push you away E Yeah Am F Dm Don't judge me tomorrow by the way I'm acting today F Miss the words of with the actions, Do it all for your reaction G Yeah FF FF FF Hey Hey... Get tangled up in me Post-Chorus 1 ---------
E|-----------------| 
B|-5--5--3---5-----| 
G|-------------5---| 
D|-----------------| 
A|-----------------| 
E|-----------------| 
  
Post-Chorus 2 
--------- 
E|----------------3----| 
B|-5--5--3---5-------6-| 
G|-------------5-------| 
D|---------------------| 
A|---------------------| 
E|---------------------|
Bridge --------- Dm G You think that you know me (tangled up in...) Dm G You think that I'm only (tangled up in me) C E Am F When everything I do is only to get tangled up in you C E Am You wanna know more more more about me F C E Am I'm the girl that's sweeping you off your feet

roll up this ad to continue

share this page

See Also: