E-Chords
Silver Jews

Suffering Jukebox(Chords)

Silver Jews

roll up this ad to continue

Key: G
Intro: 

G Em  D  C 


G 
Cranes on the downtown skyline is a  

Em 
sight to see for some, it oughta 

D 
make a few reputations in the  

C 
cult of number one... 


Chorus: Guitar Lick 1 


Such a sad machine... 

Guitar Lick 1:

e|---14-12-------------------------------------------------------------------| 
B|---------13-12-------------------------------------------------------------| 
G|---------------12-11-------------------------------------------------------| 
D|---------------------12-10-9-----------------------------------------------| 
A|---------------------------------------------------------------------------| 
E|---------------------------------------------------------------------------| 

Guitar Lick 2: 

e|---14-12-------------------------------------------| 
B|---------13-12-------------------------------------| 
G|---------------12-11-------------------------------| 
D|---------------------12-10-9-12--------------------| 
A|---------------------------------------------------| 
E|---------------------------------------------------| 
share this page

See Also: