E-Chords
Semy Mey

Passarinho Como Chuva(Chords)

Semy Mey

Key: Bb
Capo on 2nd fret
 
Intro F#11/C#  B7M  F#11/C#  B7M 

E|------------------------------------------| 
B|-------0----------------0-----------------| 
G|-----3---3---3--------3---3---3-----------| 
D|---4-------4---4----4-------4---4---------| 
A|-4----------------4-----------------------| 
E|------------------------------------------| 

E|------------------------------------------| 
B|-------0----------------0-----------------| 
G|-----3---3---3--------3---3---3-----------| 
D|---4-------4---4----4-------4---4---------| 
A|-2----------------2-----------------------| 
E|------------------------------------------| 
F#11/C# As folhas caem no quintal B7M E ainda assim eu penso que sou mais F#11/C# B7M Leve F#11/C# E quando estou a passear por lá B7M Eu posso sentir a brisa beijar minha F#11/C# B7M Pele ( F#11/C# B7M ) F#11/C# E quando a casa falar baixinho B7M F#11/C# Quem é que vai ouvir atrás das portas B7M Será se eu sou uma porta falante? F#11/C# E quando o mundo inteiro gritar B7M Quem é que vai usar tampões F#11/C# B7M E ainda me ouvir... cantar? F#11/C# Mas muitos me dizem: B7M A chuva já vai passar F#11/C# Muitos me dizem: B7M A chuva já vai passar F#11/C# Muitos me dizem (Como passarinho) B7M A chuva já vai passar (A vida vai passar) F#11/C# Muitos me dizem (Como passarinho) B7M A chuva já vai passar (A chuva vai passar) F#11/C# Como passarinho B7M A chuva vai passar F#11/C# Como passarinho B7M A vida vai passar

roll up this ad to continue

share this page

See Also: