E-Chords
Seguimos Perdiendo

Te Fuiste(Chords)

Seguimos Perdiendo

roll up this ad to continue

Key: G
G-B-E-C-D 


G-D 


Verse 1:

G B C D Te sientes más importante de lo que realmente fuiste G B C D No me preguntes por qué, sólo escribíâ??deâ??ti sin pensar C D Yâ??ahora regresas a mí C D Cuando yaâ??no eres mi sol C D Lo siento, nena, estoy con otro amor
G B Te fuiste huyendo Te fuiste huyendo C D por el callejón G B Estaba lloviendo C D En tu triste corazón
Solo 

e|----------------------------------------| 
B|----------------------------------------| 
G|----------------------------------------| 
D|--9-9-9-9-------9-----------------10-9-7| 
A|----------10-12---10-10-9-10-7-10-------| 
E|----------------------------------------| 

e|----------------------------------------| 
B|----------------------------------------| 
G|----------------------------------------| 
D|--9-9-9-9----------------9-9-9----9-7---| 
A|----------10-12-9---9-10-------10-------| 
E|----------------------------------------| 

Verse 2:

C D Yâ??ahora regresas a mí C D Cuando yaâ??no eres mi sol C D Lo siento, nena, estoy con otro amor
G B Te fuiste huyendo Te fuiste huyendo C D por el callejón G B Estaba lloviendo C D En tu triste corazón
G-B-C-D Outro G B Estaba lloviendo C D G (Estos 3 acordes C-D-G solo una vez) En tu triste corazón Seguimos perdiendo gran banda Cusco Punk's not dead
share this page

See Also: