E-Chords
Sandy

No Escuro (part. Maria Gadú)(Chords)

Sandy

roll up this ad to continue

Key: Bbm7
Intro Bbm7  Db  Gb7  F7  Fm7 

E|----------------------------------------------| 
B|----------------------------------------------| 
G|--15-15h18-18-15------------------------------| 
D|-----------------15~~---~--------13h15p13~~---| 
A|---------------------------13-16--------------| 
E|----------------------------------------------| 
Bbm7 Dbm7 Gb7 A lua cheia virou minguante F7 O suor secou Bbm7 Bb7 Gb7 O seu cheiro saiu da minha pele F7 O beijo evaporou Ebm7 F7 As suas marcas se apagaram de mim Bbm7 Ebm7 E eu não quero assim Fm7 De você, só quero tudo Bbm7 Db Eb7 No claro e no escuro F Bbm Db Eb7 A gente se acerta no escuro Eb Te vejo no escuro ( Bbm Db Gb7 F7 )
E|-----------------------------------------| 
B|-----------------------------------------| 
G|-----------------------------------------| 
D|-----------------------------------------| 
A|----6/8-8p7p6-----------------6-8--------| 
E|--6--------------6-9-6-9-6-9------9p8~~--| 
Bbm7 Abm7 Db7 Me devolve o aperto do abraço Gb7 Que me libertou Bbm7 Abm7 Db7 Te devolve pra mim e eu me encaixo Gb7 No seu tom Ebm7 F Quero morar naquele tempo sem fim Bbm Eb7 Ebm7 E eu só quero assim Ebm De você, só quero tudo Bbm Db Eb Eb7 No claro e no escuro F Bbm Db Eb7 A gente se acerta no escuro F7 Ebm7 Te vejo no escuro Ab7 Db Todo dia eu me transporto Gb Pro amassado do lençol C C7 Que me desconfigurou Gb7 F7 Gb7 F E me consertou Bbm Db Eb Eb7 No claro e no escuro F Fm Bbm Db Eb Eb7 A gente se acerta no escuro Db Bbm Db7 Eb7 F7 Bbm Db Eb7 Te vejo no escuro Eb Bbm7 Bbm Eb Te vejo no escuro
share this page

See Also: