E-Chords
Sandy

Mais Um Rosto(Chords)

Sandy

roll up this ad to continue

Key: C
 
   C7M                   A9                    Em7 
e|-------------------------------------------------------------| 
B|--------------0---------------------0---------------------3--| 
G|-----0-----0---------------2-----2---------------0-----0-----| (2x) 
D|--------2---------------------2---------------------2--------| 
A|--3---------------------0---------------------2--------------| 
E|-------------------------------------------------------------| 

C7M A9 Em7/B Procuro ... C7M A9 Em7/B mas não enxergo o alvo C7M A9 Em7/B E calo o meu silêncio pra ver C7M A9 Em7/B Se o mundo ainda existe e insiste em ser o mesmo Em7 Em5+ D sempre... Eu me disfarço Em7 Em5+ D sempre... E não me encontro Em7 Em5+ D9 A9 Nem sei qual a cor da dor Em7 Em5+ D De ser mais um rosto que mente...
    C7M                   A9                    ??? 
e|-------------------------------------------------------------| 
B|--------------0---------------------0---------------------3--| 
G|-----0-----0---------------2-----2---------------0-----0-----| (2x) 
D|--------2---------------------2---------------------4--------| 
A|--3---------------------0---------------------2--------------| 
E|-------------------------------------------------------------| 

C7M A9 Em7/B Verdade... C7M A9 Em7/B Quem desvendou não me contou C7M A9 Em7/B Que o certo é o incerto que ficou C7M A9 Em7/B E o mundo ainda gira e gira e gira e volta Em7 Em5+ D sempre... Eu me disfarço Em7 Em5+ D sempre... E não me encontro Em7 Em5+ D9 A9 Nem sei qual a cor da dor Em7 Em5+ D De ser mais um rosto que mente ... (Em7/B A9) (2x) Em5+ Sempre... A9 Sempre... Em5+ Hoouooo houoo uuu A9 Sempre... Em7 Em5+ D sempre... Eu me disfarço Em7 Em5+ D sempre... E não me encontro Em7 Em5+ D9 A9 Nem sei qual a cor da dor Em7 Em5+ D De ser mais um rosto que mente ...
    C7M                   A9                    Em7 
e|-------------------------------------------------------------| 
B|--------------0---------------------0---------------------3--| 
G|-----0-----0---------------2-----2---------------0-----0-----| (2x)
D|--------2---------------------2---------------------2--------| 
A|--3---------------------0---------------------2--------------| 
E|-------------------------------------------------------------|

share this page

See Also: