E-Chords
Samba de Boate

Nós 2(Chords)

Samba de Boate

Key: E
Intro: 
E7M(9)  E6(9)  E7M(9)  E6(9)  D7M(9)  D6(9)     C#m7   Bm7  E4(7/9)  A 


 
 Solo depois do E4(7/9) 
E|-------------------------------------------------------| 
B|-------------------------------------------------------| 
G|--7--6--4---------4------------------------------------| 
D|------------4--7------7--------------------------------| 
A|-------------------------------------------------------| 
E|-------------------------------------------------------| 
RIFF 1
 
E|-------------------------------------------------------| 
B|-------------------------------------------------------| 
G|-------------------------------------------------------| 
D|-------------------------------------------------------| 
A|--2------1--0---------4--2--0--------------------------| 
E|------0--------------------------4--0--2---------------| 
A Ouvir sua voz na hora de acordar D7M C#m7 Abrir os meus olhos e te enxergar Bm7 C#m7 Sentir o seu cheiro doce de jasmim D7M E4(7/9) Dizer que te amo olhando pra ti A Sentir o teu lábio a tocar o meu D7M C#m7 Começar o dia com um sorriso teu Bm7 Compartilhar cada minuto C#m7 D7M Descobrir que o mundo E4(7/9) A E4(7/9) Pertence a nós dois A7M E/G# Vou gritar pro mundo inteiro ouvir F#m7 C#m7 Que te amo, te adoro e te quero pra mim D7M C#m7 Todo mundo vai saber o que sinto por você Bm7 E4(7/9) Só de olhar pra mim, ao me ver sorrir A7M E/G# Vou gritar pro mundo inteiro ouvir F#m7 C#m7 Que você é o que sempre sonhei para mim D7M C#m7 Esquece o que passou, deixa tudo pra depois Bm7 E4(7/9) A7M E4(7/9) Vamos viver do que o amor reservou pra nós dois A7M Veja o tamanho do céu, vamos voar, sem direção, me dê a mão D7M D7M ^^ C#m7 ^^ Bm7 Vamos conhecer os anéis e descobrir cada constelação Bm7 E D/F# E/G# D/A E4(7/9) E quando no sol chegar, vou poder A7M E/G# Gritar pro mundo inteiro ouvir F#m7 C#m7 Que te amo, te adoro e te quero pra mim D7M C#m7 Todo mundo vai saber o que sinto por você Bm7 E4(7/9) Só de olhar pra mim, ao me ver sorrir A7M E/G# E Vou gritar pro mundo inteiro ouvir F#m7 C#m7 Que você é o que sempre sonhei para mim D7M C#m7 Esquece o que passou, deixa tudo pra depois Bm7 E A7M Vamos viver do que o amor reservou pra nós dois

roll up this ad to continue

share this page

See Also: