E-Chords
Samba de Boate

Conquista(Chords)

Samba de Boate

Key: C
Intro: 
 
E|-7-3-5-----3--------------------------------------| 
B|---------5-----3------5-6-5-6-5----3--------------| 
G|-------------------------------------------2------| 
D|--------------------------------------------------| 
A|--------------------------------------------------| 
E|--------------------------------------------------| 
 

RIFF 1 
 
E|--5--2--0--3--------------------------------------| 
B|---------------3----------------------------------| 
G|--------------------------------------------------| 
D|--------------------------------------------------| 
A|--------------------------------------------------| 
E|--------------------------------------------------| 
 

RIFF 2 
 
E|--1--0--------------------------------------------| 
B|---------3----------------------------------------| 
G|------------7--5----------------------------------| 
D|-------------------3------------------------------| 
A|--------------------------------------------------| 
E|--------------------------------------------------| 
 
C7 F Em Lê lê lê lê lê lê lêêê lê lê lê lê lê Am C7 F Em Lê lê lê lêê lê lê lêê lê lê lê lê lê 2x Am D7 Am D7 Quando chego na boate na maior azaração Am G7 C Vejo uma menina linda, ai que tentação Bm7/5- E7 Dou um toque, ela se liga e já vou pra pista Dm Dm/C Chamo ela pra dançar Dm/B Você chega devagar Dm/Bb Vem que vou te ensinar Am Vai rolar conquista
E|--------------------------------------------------| 
B|--------------------------------------------------| 
G|--------------------------------------------------| 
D|-3--2--1--0---------------------------------------| 
A|----------------3--2--0---------------------------| 
E|--------------------------------------------------| 
 
Am D7 Am D7 Ele chega na boate na maior azaração Am G7 C Vejo que moreno lindo ai que tentação Bm7/5- E7 Ele me chama e quando vejo já estou na pista Dm Dm/C Todo cheio de carinho Dm/B Eu gostei desse neguinho Dm/Bb Com esse jeito safadinho Am F ^^ G ^^ Am Ele me conquista.
C7 Se joga pra frente F Mãozinha chamando Em Am Rebola, rebola e rebola C7 Vou te deixar louca F Com um beijo na boca Em Am Rebola, rebola e rebola C7 F Em Lê lê lê lê lê lê lêêê lê lê lê lê lê Am C7 F Em Lê lê lê lêê lê lê lêê lê lê lê lê lê
PRÉ-REFRÃO Am Coração ta batendo O sangue fervendo Gm Estou enlouquecendo C7 Te quero pra mim F Corpo suado Você do meu lado Bm7/5- A noite promete E7 Amor quero sim Am O meu corpo só quer te encontrar Gm C7 Essa chama não pode apagar F Eu já sei onde vai terminar essa night Bm7/5- Isso tudo faz parte E7 Samba de boate.
C7 Se joga pra frente F Mãozinha chamando Em Am Rebola, rebola e rebola C7 Vou te deixar louca F Com um beijo na boca Em Am Rebola, rebola e rebola (3X) C7 F Em Lê lê lê lê lê lê lêêê lê lê lê lê lê Am C7 F Em Lê lê lê lêê lê lê lêê lê lê lê lê lê (2x) Am Quando chego na boate na maior azaração
...na maior azaração?
E|--1-----------------------------------------------| 
B|------3--5--5--4--3-------------------------------| 
G|------------------------0--2----------------------| 
D|--------------------------------------------------| 
A|--------------------------------------------------| 
E|--------------------------------------------------|

roll up this ad to continue

share this page

See Also: