E-Chords
Saculejo

Viva Mamãe!(Chords)

Saculejo

Key: C
1 

 
    C 
E|------------------------------------------| 
B|-1---1--1-1-1----1-1-1--------------------| 
G|-0---0--0-0-0----0-0-0--------------------| 
D|-0h2-2--2-2-2----0-2-0--------------------| 
A|-3---3--3-3-3----3-3-3--------------------| 
E|------------------------------------------| 


2 

 
    Dm 
E|-1---1--1-1-1----1-1-1--------------------| 
B|-3---3--3-3-3----3-3-3--------------------| 
G|-0h2-2--2-2-2----0-2-0--------------------| 
D|-0---0--0-0-0----0-0-0--------------------| 
A|------------------------------------------| 
E|------------------------------------------| 



3 


    F7M/C 
E|-0---0--0-0-0----0-0-0--------------------| 
B|-1---1--1-1-1----1-1-1--------------------| 
G|-0h2-2--2-2-2----0-2-0--------------------| 
D|-3---3--3-3-3----3-3-3--------------------| 
A|-3---3--3-3-3----3-3-3--------------------| 
E|------------------------------------------| 



4 

    C 
E|------------------------------------------| 
B|-1---1--1-1-1----1-1-1--------------------| 
G|-0---0--0-0-0----0-0-0--------------------| 
D|-0h2-2--2-2-2----0-2-0--------------------| 
A|-3---3--3-3-3----3-3-3--------------------| 
E|------------------------------------------| 
Primeira Parte: C Dm Tá com voz de sono foi mal se te acordei F7M/C Desligue e volte a dormir depois me C Ligue aqui iiii C Dm Eu nem sei o que faria nesse inverno F7M/C Qualquer coisa que não fosse com você C Me causaria tédio ooo Segunda Parte: C Poderia estar agora no espaço em um módulo lunar Ó que chato Dm E se eu tivesse agora velejando num barquinho no Caribe, Deus me livre F7M/C Poderia estar agora num hotel mil estrelas em Dubai C Dm F7M/C Mas eu, eu, eu, eu
C Prefiro estar aqui G Dm Te perturbando domingo de manhã F7M/C C G É que eu prefiro ouvir sua voz de sono Dm F7M/C C Domingo de manhã, Domingo de manhã Repete Primeira Parte: C Dm Tá com voz de sono foi mal se te acordei F7M/C Desligue e volte a dormir depois me

roll up this ad to continue

share this page

See Also: