E-Chords
Rumbora

7 Palmos(Chords)

Rumbora

Key: F
 
Intro: 
 
Riff 1 (Baixo) Intro 
 
G|-----------------------------------------------------------------I 
D|-----------------------------------------------------------------I 
A|-----------------------------------------------------------------I      2x           
E|-3----h5-5-5--3----h5-5-5--3----h5-5-5--3-----h5-5-5--3--/1-1-1--I 
 
2x , Depois os dois juntos 
 
 
Riff 2 (Guitarra) Intro 
 
A|-5--7--5--7--5--3-----------------------------------------------I      4x           
E|-3--5--3--5--3--1-----------------------------------------------I 
 
 
Riff 3 
 
E|-------------------------------------------------------------------------I 
B|-----------------------------------------------------------------66666---I 
G|----------666666--555555--333333--555555--88888--------------------------I 
D|--33333------------------------------------------------------------------I 
A|-------------------------------------------------------------------------I 
E|-------------------------------------------------------------------------I 
 
Riff 4 
 
E|--------------------------------------------------------------------------------I 
B|--------------------------------------------------------------------------------I 
G|----------666666--555555--333333--555555-66666-88888--66666---------------------I 
D|--33333-------------------------------------------------------------------------I 
A|--------------------------------------------------------------------------------I 
E|--------------------------------------------------------------------------------I 
 
Riff 5 
 
G|---5---7---9---11-------------------I 
D|---0---0---0---0--------------------I 
A|---3---5---7---9--------------------I 
E|------------------------------------I 
 
solo 
 
E|--------------------------------------------------------------------------I 
B|---7/-9-9-9/-12-12-12/-10-10-10/-14-14-14-13-14-13-14---------------------I
Intro Riff 3 Cuidadosamente planejado, in-vitro conservado, clonado e catalogado Riff 4 Alienado, programado, escravizado, empregado, espírito apagado, segue pálido Riff 3 Subestimado, atrofiado, modernizado, passo a passo é ludibriado F A Predestinado Riff 3 Existência, desistência, a tendência: decadência da essência, aparência é sua sentença Riff 4 Marchando o mundo engole tudo, assiste a vida pelo tudo, encanto..tonto..pronto, cai no conto Riff 3 ? Quem controla a informação e a educação, impede a revolução F A e mantém a escravidão ? C Vivo (não) D Morto (não) C Sete palmos dentro do chão Riff 5 Sete palmos dentro do chão C Morto (não) D Vivo (não) C Sete palmos dentro do chão Riff 5 Sete palmos dentro do chão _______________________________________________________ Contribuição: **Filipe**([email protected])

roll up this ad to continue

share this page

See Also: