E-Chords
Ruby Coast

Liza Liza(Chords)

Ruby Coast

roll up this ad to continue

Key: F
verse 1 

Fadd9 
Well you got the worst  
C                   Em 
none of this was supposed to hurt  
    Fadd9 
can I keep trying  
C                        Em 
running this race but my feet are tired  
  Fadd9 
I swore it was only in your head  
C                              Em  
here's to the nights where we felt misled  
     Fadd9    C    Em 
oh Liza  


verse 2 

Fadd9 
ready for a start  
C                     Em 
never could leave you in the dark  
    Fadd9 
like I once did  
C                        Em 
kept it to myself like a greedy kid  
  Fadd9 
I know it was only in my head  
C                              Em 
here's to the nights where you felt misled  
  Fadd9  C    Em 
oh Liza  Liza  


Instrumental 

Fadd9  C  Em x2 
end on Am last time 

RIFF 1 

  E5  D#5 B5   E5  D#5 B5   Bb5  B5   Bb5  F#5  Bb5  G#5  
e|------------------------------------------------------| 
B|------------------------------------------------------| 
G|--9--8--------9---8-----------------------------------| 
D|--x--x---9----x---x---9-----8----9----8----4----8----6| 
A|--7--6---x----7---6---x-----x----x----x----x----x----x| 
E|---------7------------7-----6----7----6----2----6----4| 
Am C G (x2) verse 3 Am C G let it run down so smooth that I didn't get a taste Am C G has it all has it all run dry Am C G medicine we both use there's a world I see alive Am C G honestly I don't know why Am C G wanna share some cheap wine work the knots around your spine Am C G has it all has it all run dry Am C G playing catch in Bellewoods without me if you feel good Am C G I'll sit out sit out to the side verse 4 Fadd9 we both got the worst C Em it just lined up that you were first Fadd9 C Em I can't deny something that made us try and try Fadd9 it remains only something in our heads C Em here's to the nights and a passion dead Fadd9 C Em oh Liza Liza Outro Fadd9 C Em x2
 Fadd9  F    F7 
e|--3----1----0| 
B|--1----1----1| 
G|--2----2----2| 
D|--3----3----3| 
A|-------------| 
E|-------------|
share this page

See Also: