E-Chords
Rosana

Quiero(Chords)

Rosana

roll up this ad to continue

Key: F#
intro}: 
    (F#)                 Bm 
E-||----------0-------------2----| 
B-||-------2-----3--2------3-----| 
G-||----3-----------------4------| 
D-||-4-------------------4-------| 
A-||--------------------2--------| 
E-||-------------------2---------|
F# Te voy a dar una casa de amor Bm PaŽ que la vivas conmigo A Un corazón en la puerta D Una canción al oido Em F# Bm Una mirada bonita, un sufrimiento prohibido F# Y un arco iris de luna Bm PaŽ cuando sueńes conmigo F# Te voy a dar la guarida que tiene la vida Bm PaŽ seguir viviendo, paŽ vivir queriendo F# Lo mejor de la vida es vivir, Bm A G es vivir el momento y asi te lo cuento F# PaŽ que tu la bailes, paŽ que baile el viento Bm A G PaŽ que bailes conmigo lento F# Bm Toma la cara y la cruz de mis sentimientos F# Bm Quiero, quiero, quiero F# Empezar en la tierra y seguir Bm A G En la orilla del cielo F# Bm B Quiero, quiero, y sigo queriendo Em F# Bm Que quererte sea el once de los diez mandamientos F# Te voy a dar la linterna de dios Bm PaŽ que la enciendas conmigo A Un tendedero de estrellas D El cargador de cupido Em F# Bm Caricias para el invierno, besos para un descosido F# Y una ventana en el aire Bm PaŽ que te asomes conmigo F# Te voy a dar la guarida que tiene la vida Bm PaŽ seguir viviendo, paŽ vivir queriendo F# Lo mejor de la vida es vivir, Bm A G es vivir el momento y asi te lo cuento G F# PaŽ que tu la bailes, paŽ que baile el viento Bm A G PaŽ que bailes conmigo lento F# Bm Toma la cara y la cruz de mis sentimientos F# Bm Quiero, quiero, quiero F# Empezar en la tierra y seguir Bm A G En la orilla del cielo F# Bm B Quiero, quiero, y sigo queriendo Em F# Bm Que quererte sea el once de los diez mandamientos
{solo}: 
                   F#                         Bm 
E-||-----------------------------|-----------------------------| 
B-||--7-7-7--10--8-8---7--8--7---|------------8--7---8-7-------| 
G-||---------------------9-------|-6--6-6-7-9-----9------------| 
D-||-----------------------------|-----------------------------| 
A-||-----------------------------|-----------------------------| 
E-||-----------------------------|-----------------------------| 

                   F#                         Bm 
E-||-----------------------------|--------------------------------------| 
B-||--7-7-7--10--8-8---7--8--7---|--------------------------------------| 
G-||---------------------9-------|-6--6-6-7-9---------------------12-11-| 
D-||-----------------------------|---------------9/8/9--12/11--11-------| 
A-||-----------------------------|--------------------------------------| 
E-||-----------------------------|--------------------------------------| 

E-||-----------------------| 
B-||-----------11----------| 
G-||--11-10-11----11-10-11-| 
D-||-----------------------| 
A-||-----------------------| 
E-||-----------------------| 

     F#                                      Bm       B 
E-||---------------------------------------|------7------10-| 
B-||---------------------------------------|-----7------7---| 
G-||-10-11-9--------10-11-9--------10-11-9-|----7------7----| 
D-||---------10-11----------10-11----------|---9------9-----| 
A-||---------------------------------------|--9------9------| 
E-||---------------------------------------|-7------7-------| 

      Em       F#       Bm 
E-||-------------------------------2--| 
B-||-----------------2--0---------3---| 
G-||--------0-----3--------------4----| 
D-||--2--4-----4----------------4-----| 
A-||---------------------------2------| 
E-||--------------------------2-------|
{ritmo, sin acordes}: F# <Bm} Quiero, quiero, quiero F# Darte amor a puńados <Bm} A G Darte amor sin veneno, quiero F# <Bm} Quiero, quiero, quiero F# Bm} En una gota de aire darte las alas del viento F# Bm Quiero, quiero, quiero F# Empezar en la tierra y seguir Bm A G En la orilla del cielo F# Bm B Quiero, quiero, y sigo queriendo Em F# Bm Bm Bm Que quererte sea el once de los diez mandamientos
share this page

See Also: