E-Chords
Rosa Neon

Rosa Neon(Chords)

Rosa Neon

Key: D
Intro  D  C  F  G  
         D  C  F  G  
         D  C  F  G  
         D  C  F  G  
E|------------------------| 
B|------------------------| 
G|------------------------| 
D|--0----------0----------| 
A|----3----------3--------| 
E|-------1--3------1--3---| 

Riff 

E|------12---------12-----| 
B|------------------------| 
G|--14-------14-----------| 
D|------------------------| 
A|------------------------| 
E|------------------------| 

Verse 1:

D C F G D ( C F G ) Não olhem hoje o céu azul D C ( F G D C F G ) Não olhem D C F G D ( C F G ) Colori meu olhar neon ( D C F G) ( D C F G) D C F G D ( C F G ) Sombreei toda a luz do Sol D C F G ( D C F G ) De marrom D C F G D C F G Um verde cairá tão bem em você
( D C F G) ( D C F G)

Verse 2:

D C F G D C F G Nuvens negras no céu ne__on D C F G Rosa neon (rosa neon) D C F G Rosa neon D C F G D C F G Amarelo no meu batom
( D C F G ) ( D C F G ) ( D C F G ) ( D C F G )

Verse 3:

D C F G D ( C F G ) Não olhem hoje o céu azul D C ( F G D C F G ) Não olhem D C F G D ( C F G ) Colori meu olhar neon ( D C F G) ( D C F G) D C F G D ( C F G ) Sombreei toda a luz do Sol D C F G ( D C F G ) De marrom D C F G D C F G Um verde cairá tão bem em você
( D C F G) ( D C F G)
D C F G D C F G Nuvens negras no céu ne__on D C F G Rosa neon (rosa neon) D C F G Rosa neon D C F G D C F G Amarelo no meu batom
Final D C F G D C F G D C F G D C F G D C F G D C F G D C F G D C F G D C F G D C F G D C F G D C F G

roll up this ad to continue

share this page

See Also: