E-Chords
Rory Gallagher

They Dont Make Them Like You Anymore(Chords)

Rory Gallagher

Key: Dm7
(intro) 

E|------------------------------3---5---6--|---------------------3---1---0----| 
B|-----3--5--6--5--3h5p3-------------------|---3--5--6--5--3h5p3--------------| 
G|-----------------------------------------|----------------------------------| 
D|-----------------------------------------|----------------------------------| 
A|-----------------------------------------|----------------------------------| 
E|-----------------------------------------|----------------------------------| 

E|------------------------------3---5---6--|---5--3--1--3--1--0---------------| 
B|-----3--5--6--5--3h5p3-------------------|---------------------3--2---------| 
G|-----------------------------------------|----------------------------------| 
D|-----------------------------------------|----------------------------------| 
A|-----------------------------------------|----------------------------------| 
E|-----------------------------------------|----------------------------------|
Dm7 Gm Dm7 They don't make them like you anymore, A7 That's for sure, Dm7 Gm And when they made you, Dm7 A7 They made sure they threw away the mould. Bb7 A7 Dm7 Dm7 It comes as no surprise to me, That I want to be in your vicinity. If I stand close to you, I'm not sure if I'm really there. With my feet on the ground, But my head it's lost in the air,

roll up this ad to continue

share this page

See Also: