E-Chords
Rodrigo Alarcon

Corte De Papel(Chords)

Rodrigo Alarcon

Key: C
Intro C7M(9)  G9/A  C7M(9)  G9/A  

E|---------------------------------------------| 
B|--------------------0------------------------| 
G|-------------7----------7-----7--------------| (2X) 
D|---------5-----------------5-----------------| 
A|-----3-----------3---------------------------| 
E|---------------------------------------------|
E|---------------------------------------------| 
B|--------------------3------------------------| 
G|-------------4----------4-----4--------------| (2X) 
D|---------5-----------------5-----------------| 
A|-----0-----------0---------------------------| 
E|---------------------------------------------|
E|---------------------------------------------| 
B|--------------------0------------------------| 
G|-------------7----------7-----7--------------| (2X) 
D|---------5-----------------5-----------------| 
A|-----3-----------3---------------------------| 
E|---------------------------------------------|
E|---------------------------------------------| 
B|--------------------3------------------------| 
G|-------------4----------4-----4--------------| (2X) 
D|---------5-----------------5-----------------| 
A|-----0-----------0---------------------------| 
E|---------------------------------------------|
G4/C Me rasga a alma G Com folha sulfite G4/C Somente a superfície G Que faz arder demais G4/C Mas não mata G Só dói quando encosta G4/C G Ou se mexe sem querer G4/C Me come vivo G Com faca cega e garfo torto G4/C Num prato quebrado G Que é pra demorar à acabar G4/C Essa aflição G De estar com a vista cansada G4/C G De ver com a lente embaçada, turva G4/C G Me fura o peito com agulha de costura G4/C G Fecha a ferida sem anestesiar G4/C G E desafina numa melodia estranha G4/C G Que eu fiz sem métrica nenhuma G4/C Pra dizer que eu não tô bem G Pra dizer que eu não tô bem G4/C Pra dizer que eu não tô bem, que eu não tô bem G Que eu não tô bem, eu não tô bem, eu não tô bem G4/C Eu não tô bem, eu não tô bem, eu não tô bem G Eu não tô bem, eu não tô bem, eu não tô bem G4/C Eu não tô bem, eu não tô bem, eu não tô bem G Que eu não tô bem, que eu não tô bem, eu não tô bem G4/C Que eu não tô bem, eu não tô bem, eu não tô bem G Eu não tô bem, eu não tô bem G4/C Mas vou ficar

roll up this ad to continue

share this page

See Also: