E-Chords
Rock Em Dobro

Here I Am(Chords)

Rock Em Dobro

roll up this ad to continue

Key: Db
Intro D  Bm7  A4  
        G  G7M  G6 

E|---------0----------------0-------| 
B|-----3-------2-3------3-------2-3-| 
G|---2---2---2--------2---2---2-----| 
D|-0----------------0---------------| 
A|----------------------------------| 
E|----------------------------------|
E|---------0----------------0-------| 
B|-----3-------2-3------3-------2-3-| 
G|---2---2---2--------2---2---2-----| 
D|----------------------------------| 
A|-2----------------2---------------| 
E|----------------------------------|
E|---------0----------------0-------| 
B|-----3-------2-3------3-------2-3-| 
G|---2---2---2--------2---2---2-----| 
D|----------------------------------| 
A|-0----------------0---------------| 
E|----------------------------------|
E|------3----3--2--2--0--0----------| 
B|------3----3--3--3--3--3----------| 
G|------0----0--0--0--0--0----------| 
D|------0---------------------------| 
A|------2---------------------------| 
E|-3----3---------------------------|
D I know I said goodbye Bm7 I know you didn't cry A4 G I wanna know if everything will be fine D I had to prove many times Bm7 Love is like sunshine A G Warms the soul without burning inside Em7 D/Gb G And all I need is to feel A The love between us is real D And here I am Bm7 Being all I am A4 G Nothing's like before D Let me understand Bm7 Tell me if you can Em7 D/Gb G What made me lose control D Your eyes touched my heart Bm7 And I remember the time A4 G You said our love would never die Em7 D/Gb G The day is all mine D A4 But I have to find out why Bm G A I feel I can go higher, higher D And here I am Bm7 Being all I am A4 G Nothing's like before D Let me understand Bm7 Tell me if you can A4 G Tell me if you can D And here I am Bm7 Being all I am A4 G Nothing's like before D Let me understand Bm7 Tell me if you can A4 G Let me understand E And here I am B4 Being all I am Dbm7 A2 Nothing's like before E Let me understand B4 Tell me if you can Dbm B A2 What made me lose control Dbm B A2 Me lose control Dbm B Me lose control Final E B4 Dbm7 A2
share this page

See Also: