E-Chords
Robert Cray

Nothing but a woman(Chords)

Robert Cray

roll up this ad to continue

Key: C7
 
(Intro: Riff Pr., C7) 
 
(Riff Pr., C7) 
You can give me an hour alone in a bank 
Pay all my tickets, wipe the slate blank 
You could buy me a car, fill up the tank 
Tell me a boat full of lawyers just sank 
 
             (F7) 
But it ain't nothin' but a woman 
                         (Riff Pr., C7) 
Nothin' but a woman, no, no 
           (G7)                (F7) 
Don't need nothin' but a woman 
                     (Riff Pr., C7) 
Any time I'm feelin' low 
 
(igual acima) 
Well, you could fly us to Dallas on a jumbo-jet plane 
If we run late and miss it, we can take the night train 
When the pressure is on, things getting insane 
Only one cure for that kind of strain 
 
It ain't nothin' but a woman 
Nothin' but a woman, no, no 
Don't need nothin' but a woman, yeah, yeah 
To get me through the show 
 
Sax Solo 
 
SOLO (bom) 
 
Yeah, you can make me a bet, give me a ten-point spread 
Give me french brandy that will clear my head 
When it's all over, feeling half-dead 
Only one thing, just like I said 
 
It ain't nothin' but a woman 
Nothin' but a woman, yeah, yeah 
Any time I got a woman 
Things can't be too bad 
 
You can buy me a house, turn over the deed 
Bring six pounds of California weed 
But my weakness ain't drugs, whiskey, or greed 
Only one thing that YOUNG BOB needs 
 
It ain't nothin' but a woman 
Nothin' but a woman 
Yeah, you right 
Ain't nothin' but a woman to get me through the night 
 
Mmmmm 
 
It's like I said, man 
Ain't nothin' but a woman 
 

 
Riff principal                            
E||------------------------|| 
B||--1--1------------------|| 
G||-------------------3----|| 
D||-----------2----2-------|| 
A||--------3---------------|| 
E||------------------------|| 
 
Solo:                                                                                                        
E||--------------------|--8----8------8------8----|--8------8--------------|--8----8------8----8------| 
B||------------12------|----------11b----11-------|-----11b--------11------|----------11b---------11b-| 
G||------------10b-----|--------------------------|-----10---------10b-----|--------------------------| 
D||--------------------|--------------------------|------------------------|--------------------------| 
A||--------------------|--------------------------|------------------------|--------------------------| 
E||--------------------|--------------------------|------------------------|--------------------------| 
                                                                                                       
------8--------------|--8----8------8----------|------8------8----------|--11--13b-------13b-13b-13b-| 
-------------11------|----------11b--------11b-|---------11b--------13--|----------------------------| 
-------------10b-----|---------------------10--|------------------------|----------------------------| 
---------------------|-------------------------|------------------------|----------------------------| 
---------------------|-------------------------|------------------------|----------------------------| 
---------------------|-------------------------|------------------------|----------------------------| 
                                                                                             
----13--11--13-----------------|----------------------------|--15--15----------------20\---| 
-------------------------13----|--15b---15--13--13----15b---|----------15--15--15b---------| 
------------------12h14--------|----------------------------|------------------------------| 
-------------------------------|----------------------------|------------------------------| 
-------------------------------|----------------------------|------------------------------| 
-------------------------------|----------------------------|------------------------------| 
                                                                                               
-------------------13--11----------|---------8-------------8--|--10b---10--8--10------8------| 
--------10h11--13------------13p11-|-----------------8h10-----|-------------------10-----11b-| 
----12-----------------------------|--10\-8-------------------|------------------------------| 
-----------------------------------|--------------------------|------------------------------| 
-----------------------------------|--------------------------|------------------------------| 
-----------------------------------|--------------------------|------------------------------| 
                                                                                                          
------8-----8--------------|--8----------------------|----------------------------|--------------------|| 
--------11-----------------|-----------11--8---------|----------------------------|--------------------|| 
---------------10p--8------|------------------10b-8--|--10--8------------8--------|--------------------|| 
-----------------------10--|-------------------------|---------10----10-----10----|--10b---------------|| 
---------------------------|-------------------------|----------------------------|--------------------|| 
---------------------------|-------------------------|----------------------------|--------------------||
_______________________________________________________ Contribuição: Marcelo Mariozi([email protected])
share this page

See Also: