E-Chords
Robert Cray

I guess i Show Her(Chords)

Robert Cray

roll up this ad to continue

Key: D9
(Intro: F - D9 - F - D9) 
 
 
(D9) 
I payed the clerk and moved right in 
A single room with one big twin 
There's a chest and mirror 
Shower's down the hall 
 
     (G7) 
Room 16 ain't got no view 
But the hot plate's brand new 
                
                 (F) 
I guess I showed her 
                 (D9) 
I guess I showed her 
  
(D9) 
Once again I've been burned 
My suspicion's been confirmed 
I saw her having lunch 
With some new guy 
  
         (G7)         
I walked up and said, 'Goodbye' 
She said, 'Wait, can we talk tonight?' 
  
                 (F) 
I guess I showed her  
                       (D9) 
Mmmm, I guess I showed her 
  
                 (F) 
I guess I showed her  
                 (D9) 
I guess I showed her 
  
                 (F) 
I guess I showed her that a man, yeah  
              (D9) 
Has his limits  
        (G7)                        (A7) 
Another man is where I draw the line 
  
        (D9) 
She can have the house  
                         (G7) 
And everything that's in it 
  
                 (F) 
I guess I showed her, yeah  
                 (D9) 
I guess I showed her 
 
 
(Cool guitar solo) 
E||--------------------------------|----------------------------|----------------------------------| 
B||------10------------------------|--12------------------------|------10----------------------10--| 
G||--12b-----12--10------------12b-|------12--10----------------|--12b-----12--10------10--12b-----| 
D||------------------12p-10--------|--------------12------------|------------------12--------------| 
A||--------------------------------|--------------------12------|----------------------------------| 
E||--------------------------------|----------------------------|----------------------------------| 
 
 
                                                                                              
------------------------------|----13--13----13--13----10--|--------------------------------| 
--13b---10--------------------|----10--10----10--10--------|----15~-----13-10---------------| 
-----------12-10--------10b---|----------------------------|------------------12--10--------| 
------------------------------|----------------------------|--------------------------12p10-| 
------------------12----------|----------------------------|--------------------------------| 
------------------------------|----------------------------|--------------------------------| 
 
 
                                                                                              
----13--13--10--13--13--------|----13--15--15b---17--13--15--|--------13----------------10--| 
----10--10--10--10--10----15~-|------------------------------|--15\-------------------------| 
------------------------------|------------------------------|--------------12p-10----------| 
------------------------------|------------------------------|----------------------12------| 
------------------------------|------------------------------|------------------------------| 
------------------------------|------------------------------|------------------------------| 
 
 
                                                                                                        
--------------10--------------10--|------------------------10------|----------10----------------------| 
----------------------------------|--------------------------------|--------------------------10--13b-| 
------10--------------10----------|----14p-13--12--10--------------|--10--------------10--12----------| 
--12------12------12------12------|--------------------12------12--|------12------12------------------| 
----------------------------------|--------------------------------|----------------------------------| 
----------------------------------|--------------------------------|----------------------------------| 
 
 
                                                                                           
--10------10------10--------------|--------------------------|---------------------------| 
------13b-----13b-----------------|--------------------------|-----------10/---12----10--| 
--------------------------10--12b-|------10--12--------10----|-----------11/---12--------| 
----------------------12----------|--------------12----------|--9--12--------------------| 
----------------------------------|--------------------------|-----12--------------------| 
----------------------------------|--------------------------|---------------------------| 
 
 
                                   
--10----10----------------------|| 
--13b-------13p-10--------------|| 
--------------------12p-10------|| 
----------------------------12--|| 
--------------------------------|| 
--------------------------------|| 
(D9) She will be surprised *** Thanks to Kevin for the help on this hard one!!! *** When she comes in tonight Flips on the light And finds an empty home (G7) Yeah, every time she's lied Will flash before her eyes (F) I guess I showed her, yeah, yeah (D9) I guess I showed her (F) I guess I showed her, yeah, yeah (D9) I guess I showed her (F) Now she can have the house (D9) And she can keep the car (F) I'm just satisfied (D9) Staying in this funky, little old motel (F) I'm so mad (D9) Well I can't stand it (F) I can't stand it (D9) Nooooooo!
share this page

See Also: