E-Chords
Ricky Martin

Vente Pa' Ca(Chords)

Ricky Martin

Watch the video lesson
Key: Em
Intro: 

---------------------------------------------------------------- 
-5h7-7-7-7p5-5-5-5\3-3-3-3s2-2-2-2------------------------------ 
-----------------------------------h4-4-2-2--2-2h4-2------------ 
---------------------------------------------------------------- 
---------------------------------------------------------------- 
---------------------------------------------------------------- 

|-------------|------------------------------------------------- 
|-2h3--2------|------------------------------------------------- 
|---------4-4-|-(3x)-------------------------------------------- 
|-------------|------------------------------------------------- 
|-------------|------------------------------------------------- 
|-------------|------------------------------------------------- 

|-------------|------------------------------------------------- 
|-2h3--2------|------------------------------------------------- 
|---------4-4-|-(3x)-------------------------------------------- 
|-------------|------------------------------------------------- 
|-------------|------------------------------------------------- 
|-------------|------------------------------------------------- 
Em A Ven te cuento de una vez D G Tu descanso está en la cama de mis pies Em A Ven te cuento, un, dos, tres Bm Mis pasitos son descansos sin estrés Em A D G Dime si hay otro lugar para dejar mi corazón Em A ¡Ay!, tienes razón Bm Mejor por qué no, nos vamos los dos Em Si tú quieres nos bañamos, A Si tú quieres nos soplamos pa secarnos lo mojao D Si tu boca quiere beso G y tu cuerpo quiere de eso arreglamos Em Si tú quieres un atajo A y lo quieres por abajo yo te llevo bien callao Bm Vente pa' 'ca, vente pa' 'ca, vente pa' 'ca ah Em A D G Em A Bm Em A Enamorados, qué calor D G Nos comimos boca a boca en el sillón Em A Fue por hambre, fue por sed Bm Me bebiste a fondo blanco con tu piel Em A D G Dime si hay otro lugar para dejar mi corazón Em A ¡Ay!, tienes razón Bm Mejor por qué no, nos vamos los dos Em Si tú quieres nos bañamos, A Si tú quieres nos soplamos pa secarnos lo mojao D Si tu boca quiere beso G y tu cuerpo quiere de eso arreglamos Em Si tú quieres un atajo A y lo quieres por abajo yo te llevo bien callao Bm Vente pa' 'ca, vente pa' 'ca, vente pa' 'ca ah Em A D G Em A Bm All right, all right baby pretty boy, dirty boy, baby! Em Como me duele, me seduce A Y cuando le apagan las luces D G Ella se luce y yo se lo hago otra vez (otra vez) Em Llevo tanto tiempo mirando reaccionar A Dime que tas esperando baby no hay demora D Pégate a mí, que rico a mí, G no dejes que pasen las horas Em Tu booty me arrebata, tu sonrisa me atrapa A Quiero tenerte siempre y no dejarte sola D Esta historia no se acaba pues vamos pa mi cama G Esta noche tú te enamoras Em A Dime de una vez, si es que al lado tuyo yo estaré, Bm todo lo que pidas te daré, esta noche tu te enamoras Em Si tú quieres nos bañamos, A Si tú quieres nos soplamos pa secarnos lo mojao D Si tu boca quiere beso G y tu cuerpo quiere de eso arreglamos Em Si tú quieres un atajo A y lo quieres por abajo yo te llevo bien callao Bm Vente pa' 'ca, vente pa' 'ca, vente pa' 'ca ah
Solo:  

---------------------------------------------------------------- 
-5h7-7-7-7p5-5-5-5\3-3-3-3s2-2-2-2------------------------------ 
-----------------------------------h4-4-2-2--2-2h4-2------------ 
---------------------------------------------------------------- 
---------------------------------------------------------------- 
---------------------------------------------------------------- 

---------------------------------------------------------------- 
-5h7-7-7-7p5-5-5-5\3-3-3-3s2-2-2-2------------------------------ 
-----------------------------------h4-4-2-4~--2----------------- 
---------------------------------------------------------------- 
---------------------------------------------------------------- 
---------------------------------------------------------------- 

---------------------------------------------------------------- 
-5h7-7-7-7p5-5-5-5\3-3-3-3s2-2-2-2------------------------------ 
-----------------------------------h4-4-2-2--2-2h4-2------------ 
---------------------------------------------------------------- 
---------------------------------------------------------------- 
---------------------------------------------------------------- 

|-------------|------|----2------------------------------------- 
|-2h3--2------|------|-3---------------------------------------- 
|---------4-4-|-(3x)-|------------------------------------------ 
|-------------|------|------------------------------------------ 
|-------------|------|------------------------------------------ 
|-------------|------|------------------------------------------

roll up this ad to continue

share this page

See Also: