E-Chords
Ricardo e João Fernando

Só Saio Com As Top(Chords)

Ricardo e João Fernando

roll up this ad to continue

Key: C
Intro: C  G  Am  F (2x)

E|---------------------------------------------------------------| 
B|-5/8-8-8-8--5-6-6-6-5------5T6-6-6-5----5T6-6-6-5--------------| 
G|-----------------------7-------------7-------------------------| 
D|---------------------------------------------------------------| 
A|---------------------------------------------------------------| 
E|---------------------------------------------------------------| 

E|---------------------------------------------------------------| 
B|-5/8-8-8-8--5-6-6-6-5------5T6-6-6-5----5T6-6-6-5------5-------| 
G|-----------------------7-------------7-------------5-7---------| 
D|---------------------------------------------------------------| 
A|---------------------------------------------------------------| 
E|---------------------------------------------------------------| 
C G Eu tô sempre numa boa, com uma gata do meu lado Dm G Sou um cara de sorte, só ando apaixonado C G Na balada me divirto, se saio de madrugada Dm G Elas pegam no meu pé, fazem marcação cerrada Am Em Tá demaaaais! Que beleeeza! F G Na minha horta tá chovendo só princesa C G Eu tô com tudo, tô no maior IBOPE Am F Só saio com as top, só saio com as TOP C G Eu me dei bem, sou um cara de sorte Am F Só saio com as top, só saio com as TOP (2x)
E|---------------------------------------------------------------| 
B|-5/8-8-8-8--5-6-6-6-5------5T6-6-6-5----5T6-6-6-5--------------| 
G|-----------------------7-------------7-------------------------| 
D|---------------------------------------------------------------| 
A|---------------------------------------------------------------| 
E|---------------------------------------------------------------| 

E|---------------------------------------------------------------| 
B|-5/8-8-8-8--5-6-6-6-5------5T6-6-6-5----5T6-6-6-5------5-------| 
G|-----------------------7-------------7-------------5-7---------| 
D|---------------------------------------------------------------| 
A|---------------------------------------------------------------| 
E|---------------------------------------------------------------| 
(repete tudo)
share this page

See Also: