E-Chords
Ricardo e João Fernando

Mais Que Paixão(Chords)

Ricardo e João Fernando

roll up this ad to continue

Key: C
Intro: C G Am F (2x)
  
E|------------------------------------------------------| 
B|-6h8-6-5-3--6h8-6-5-3---------------------------------| 
G|----------------------5--5-5-5-7-9-9h10-9-7-7-5-7-7h9-| 
D|------------------------------------------------------| 
A|------------------------------------------------------| 
E|------------------------------------------------------| 


E|------------------------------------------------------| 
B|-6h8-6-5-3--6h8-6-5-3---------------------------------| 
G|----------------------5--5-5-5-7-9-9h10-9-7-7-5-7-5---| 
D|------------------------------------------------------| 
A|------------------------------------------------------| 
E|------------------------------------------------------| 
C G Am F Eu procurei em todo lugar por alguem C G F Eu encontrei você C G Am F Mais que palavras, um sentimento sincero C G F G É mais que promessas, eu vou te mostrar o quanto eu te quero
C G Am Mais que paixão, mais que um desejo F O seu amor me faz sonhar C G Am Vou te contar os meus segredos F G C Hoje e sempre eu vou te amar
C G Am F (2x)
E|------------------------------------------------------| 
B|-6h8-6-5-3--6h8-6-5-3---------------------------------| 
G|----------------------5--5-5-5-7-9-9h10-9-7-7-5-7-7h9-| 
D|------------------------------------------------------| 
A|------------------------------------------------------| 
E|------------------------------------------------------| 


E|------------------------------------------------------| 
B|-6h8-6-5-3--6h8-6-5-3---------------------------------| 
G|----------------------5--5-5-5-7-9-9h10-9-7-7-5-7-5---| 
D|------------------------------------------------------| 
A|------------------------------------------------------| 
E|------------------------------------------------------| 
C G Am F Mais que palavras, um sentimento sincero C G F G É mais que promessas, eu vou te mostrar o quanto eu te quero
C G Am Mais que paixão, mais que um desejo F O seu amor me faz sonhar C G Am Vou te contar os meus segredos F G C Hoje e sempre eu vou te amar C G Am Eu vou estar sempre com você F Quando o sol brilhar, quando a noite chegar C G Am Vou te abraçar, vou te proteger F G E por nada no mundo vou te deixar C G Am Mais que paixão, mais que um desejo F O seu amor me faz sonhar C G Am Vou te contar os meus segredos F G C Hoje e sempre eu vou te amar
(final)
E|------------------------------------------------------| 
B|-6h8-6-5-3--6h8-6-5-3---------------------------------| 
G|----------------------5--5-5-5-7-9-9h10-9-7-7-5-7-5---| 
D|------------------------------------------------------| 
A|------------------------------------------------------| 
E|------------------------------------------------------|
share this page

See Also: