E-Chords
Reo Speedwagon

After Tonight(Chords)

Reo Speedwagon

roll up this ad to continue

Key: D
            Am7   Bm     A     D       G      Am7       Bm      D 
E|-------------------------------------------------------| 
B|-----------------------------------0-1--0------------| 
G|------2--4-5-4---5-4-2--2-------------5-4--2-- |                                                    
D|---5---------------------------5---------------------| 
A|-------------------------------------------------------| 
E|-------------------------------------------------------| 

   A       Am7      G      D4        G     D 
E|-------------------------------------------------------------------| 
B|------------------------------------------5--7-7/8----7/8-7---| 
G|-------4--5-5-/7--7-p-5--4----5-----------------------------| 
D|-5-7------------------------------------7-----------------------| 
A|-------------------------------------------------------------------| 
E|-------------------------------------------------------------------|
D G Staring up at the moonlight Am7 Looking up at the stars D G I'm alone and i just want to be with you Bm E4 But i don't know where you are D G Maybe i took you for granted Am D So blind, i let your love slip away Bm Em Now i'm missing you so much i can't stand it Am D4 G D Please believe me when i say, Am Em D G7 After tonight, i never will be the same again C Am This time i'm sure that nothing means more Em Am Than giving you all the love i can Em Bm D G7 After tonight i promise, i'm gonna be a better man C Am Just hold me tight, and i'll be all right Am7 After tonight D G Anticipating the moment Am G7 When i can make love with you again C D Patience is a virtue i'm finding E4 Very hard to understand After tonight, i will never be the same again This time i'm sure that nothing means more Than giving you all the love i can After tonight i promise, i'm gonna be a better man Just hold me tight, and i'll be all right After tonight
share this page

See Also: