E-Chords
Ray Douglas

Tentei Te Esquecer(Chords)

Ray Douglas

roll up this ad to continue

Key: B
(intro 2x)  B E F# 

(solo) 
E|---------------------------------------| 
B|------------4---4/5--4-----------------| 
G|---------4---------------4-------------| 
D|------4---------------------6---4------| 
A|---2-----------------------------------| 
E|---------------------------------------| 

E|---------------------------------------| 
B|----------4-5-7--7/5-4-5-7-9---2-------| 
G|-------4-------------------------------| 
D|----4----------------------------------| 
A|---------------------------------------| 
E|---------------------------------------|
B E F# Ah! Como quero te encontrar novamente B E F# Estou sozinho procurando você B E F# Ah! Como quero te abraçar loucamente C#m E F# B E F# Olhar dentro dos teus olhos e dizer 'não vivo sem você' (2ª parte) B E F# O tempo passa cai à noite e o dia vem B E F# Tento fingir, mas não dá pra esconder... B E F# Ah! Eu sonhei nas noites vagas com teu amor G#m E F# Provei teu beijo magoei minha dor
B E F# Tentei te esquecer... não deu B E F# Pensei que fosse mais forte que esse amor B E F# Ó minha paixão... sou teu B E F# Por mais que eu queira disfarçar como estou G#m E C#m F# B O meu coração se nega a aceitar, passa o tempo não esqueço de te amar.
 (solo) B E F# B E F# 
E|---------------------------------------------------------------------------| 
B|---------------------------------------------------------------------------| 
G|----6fullbend------------------4--6/8--6--3h4h6----------4--4--6--8--8/11--| 
D|----------------4--------4--6--------------------4----4--------------------| 
A|-------------------4--6----------------------------------------------------| 
E|---------------------------------------------------------------------------| 

E|---------------------------------------------------------------------------| 
B|---------------------------------------------------------------------------| 
G|-----6h8--9--11--11/13--11-------------------------------------------------| 
D|----------------------------8h9h11-----------------------------------------| 
A|------------------------------------9--------------------------------------| 
E|---------------------------------------------------------------------------|
(repete 2ª parte) B E F# Tentei te esquecer... não deu B E F# Pensei que fosse mais forte que esse amor B E F# Ó minha paixão... sou teu B E F# Por mais que eu queira disfarçar como estou G#m E O meu coração se nega a aceitar, C#m F# B passa o tempo não esqueço de te amar. E F# B passa o tempo não me esqueço de te amar.
share this page

See Also: