E-Chords
Rauw Alejandro

Cúrame(Chords)

Rauw Alejandro

Key: G
Intro: Am  Em  F  
        Am  Em  F  
   
E|-----------8------------------------------| 
B|------10-------10---------8---------10----| 
G|----9--------9----------9-----------------| 
D|-/7------------------------------10-------| 
A|---------------------7---------8----------| 
E|------------------------------------------| 

E|-----------12-----------------------------| 
B|------10-------10---------8---------10----| 
G|----9--------9----------9-----------------| 
D|-/7------------------------------10-------| 
A|---------------------7---------8----------| 
E|------------------------------------------| 
Am Em F Hace unos días, me caí del cielo Am Em F Tú no ere' ella, pero te deseo Am Em F Quédate cerca de mí, ven, cúrame esta noche Am Em F Y aunque sea mentira, quiéreme esta noche Am (tres cachás, marihua, no se tose) Em F (guayando se le sube el escote) Am (eah, what the fuck? Cómo se me agacha) Em F (A mi ex, la tengo tachá')

Verse 1:

Am En cantidade' llegan las botellas Em F El vip brilla má' que una estrella Am Me gusta esta, pero también aquella Em F Juro que esta noche me desquito de ella Am Y ahora soy un pobre diablo Em F No tengo de tu amor, pero culo' tengo vario' Am Drogas y alcohol es necesario Em Solo juego solitario F Tu nombre borra'o de mi diario Am Em Tú no ere' ella, pero bellaco me tiene' hace rato F Am Viniste programada en mi formato Em F Se arrebató, me suelta to' y yo ni trato
Am Em F Hace unos días, me caí del cielo Am Em F Tú no ere' ella, pero te deseo Am Em F Quédate cerca de mí, ven, cúrame esta noche Am Em F Y aunque sea mentira, quiéreme esta noche Am (tres cachás, marihua, no se tose) Em F (guayando se le sube el escote) Am (eah, what the fuck? Cómo se me agacha) Em F (A mi ex, la tengo tachá')

Verse 2:

Am Son las doce Y en el agua siguen los bote' Em F 'tás prendía' en fuego, quiere que me sofoque Am Si te corre, hacemo' infinita la noche Em F Am Baila, baila, bailando la hebilla cómo me la guaya Em F Me toca, le encanta pasarse de la raya Am Sin ropa, se nota que le gusta la playa Em F El abdomen y su booty están on fire

Pre-Chorus

Am En el aire hay humo y no es del incienso Em F La bellaquera sigue en ascenso Am Nadie nos ve y el momento está intenso Em F Dime si piensa' lo que yo pienso
Am Em F Hace unos días, me caí del cielo Am Em F Tú no ere' ella, pero te deseo Am Em F Quédate cerca de mí, ven, cúrame esta noche Am Em F Y aunque sea mentira, quiéreme esta noche
Final: Am Em F Am Em F Am Em F Am Em F

roll up this ad to continue

share this page

See Also: