E-Chords
Que Reviente la Comisión

Una Sonrisa Por Nada(Chords)

Que Reviente la Comisión

Key: Am
Intro:  Am - F G - Am - C Bm7/5-  (x2) 
6|---------------------7-5-3-5-------------------7-5-3-5-- 
5|---0--0-2-3-------------------0-2-3--/7-5--------------- 
4|---2----------/7-5-------------------------------------- 
3|-------------------------------------------------------- 
2|-------------------------------------------------------- 
1|-------------------------------------------------------- 
F G F G Una sonrisa por nada, siempre imagino Am G Am D a tu futuro lo vi, de la mano de mis miedos. Y de campeón repetí el mismo premio quedaremos más allá, arrepentido, asustado. Puente: ( F G - Am - F G - E7 ) Am C F E7 Quiero pensar si siento lo que pensaba Am F C E7 Intro quiero encontrarte sin que me encuentres por detrás. Am - F G - Am - C Bm7/5- x2
6|---------------------7-5-3-5-------------------7-5-3-5-- 
5|---0--0-2-3-------------------0-2-3--/7-5--------------- 
4|---2----------/7-5-------------------------------------- 
3|-------------------------------------------------------- 
2|-------------------------------------------------------- 
1|-------------------------------------------------------- 
F G F G Tengo rechazo al rechazo, estoy quebrado Am G Am D Mi suerte hoy ya no está, ya no soy aquel que era. Puente: F G - Am - F G - E7 Am C F E7 Quiero pensar si siento lo que pensaba Am F C E7 Am quiero encontrarte sin que me encuentres por detrás. C F E7 Me hice amigo de tu sombra para poder observarte Am F C E7 Mientras en la luz brillabas, te esperaba en la oscuridad. Solo: Am - F - C - E x2 F G C G/B Am Am/G Si tengo que elegir verte, desnuda o con un disfraz F G G# - A# - C me quedo con el principio.

roll up this ad to continue

share this page

See Also: