E-Chords
Punkreas

Cuore Nero(Chords)

Punkreas

roll up this ad to continue

Key: Am
Intro 
e|---------------------------------------------------------------------| 
B|---------------------------------------------------------------------| 
G|-----2-----0-----0---0---0------------2-----0-----0---0--------------|(X 3) 
D|---2---2-3---3-2--------------------2---2-3---3-2-----------0--------| 
A|-0-----------------3---3---3-2-3--0-----------------3---3-2---3-2----| 
E|---------------------------------------------------------------------| 
Verse Am F C G Ascolto una voce Am F C G Nell'ora in cui tace tutta la città Am F C G La voce mi dice: 'Sai che cosa fare Am F C G Non resistere, lasciati trasportare' Pre-Chorus Am F C G Io sorriderò per farti male Am F C G La febbre che sale non la fermerò Am F C G Soltanto una voce mi può far pensare Am F C G La voce mi chiama e poi mi dice no
Instrumental 
e|---------------------------------------------------------------------| 
B|---------------------------------------------------------------------| 
G|-----2-----0-----0---0---0------------2-----0-----0---0--------------|(X 3) 
D|---2---2-3---3-2--------------------2---2-3---3-2-----------0--------| 
A|-0-----------------3---3---3-2-3--0-----------------3---3-2---3-2----| 
E|---------------------------------------------------------------------| 
Pre-Chorus Am F C G Io sorriderò per farti male Am F C G La febbre che sale non la fermerò Am F C G Soltanto una voce mi può far pensare Am F C G La voce mi chiama e poi mi dice no
Chorus Am F C G Non so se ti può consolare Am F C G Non so se mi potrai capire Am F C G Non so se ti farà piacere Am F C G Non so niente eppure
Am F C Accendi la luce G Sai che non mi piace Am F C G La pace che viene dall'oscurità Am F C G Restare nel buio mentre ti torturo Am F Non mi basta più C G Voglio il tuo cuore nero
Instrumental 
e|---------------------------------------------------------------------| 
B|---------------------------------------------------------------------| 
G|-----2-----0-----0---0---0------------2-----0-----0---0--------------|(X 3) 
D|---2---2-3---3-2--------------------2---2-3---3-2-----------0--------| 
A|-0-----------------3---3---3-2-3--0-----------------3---3-2---3-2----| 
E|---------------------------------------------------------------------| 
Chorus Am F C G Non so se ti può consolare Am F C G Non so se mi potrai capire Am F C G Non so se ti farà piacere Am F C G Non so niente eppure
Am F C Accendi la luce G Sai che non mi piace Am F C G La pace che viene dall'oscurità Am F C G Restare nel buio mentre ti torturo Am F Non mi basta più C G Voglio il tuo cuore nero Am F C Accendi la luce G Sai che non mi piace Am F C G La pace che viene dall'oscurità Am F C G Restare nel buio mentre ti torturo Am F Non mi basta più C G Voglio il tuo cuore nero Outro Am F C G Non so se ti può consolare Am F C G Non so se mi potrai capire Am F C G Non so se ti farà piacere Am F C G Non so niente eppure Am F C Accendi la luce G Sai che non mi piace Am F C G La pace che viene dall'oscurità Am F C G Restare nel buio mentre ti torturo Am F Non mi basta più C G Voglio il tuo cuore nero
share this page

See Also: