E-Chords
Psy

Gangnam Style(Chords)

Psy

Watch the video lesson
Key: Am
1ª parte 3x:  

e|---------------------------------------------------|  
B|---------------------------------------------------|  
G|---------------------------------------------------|  
D|---------------------------------------------------|  
A|-2-2---2---2-2-5-2-2---2-2-------------------------|  
E|---------------------------5-4-3-------------------|  
   1   2   3   4   5   6   7   8  

2ª parte:  
                    E5     F#5  
e|-----------------------------------------|  
B|-----------------------------------------|  
G|-----------------------------------------|  
D|-----------------------------------------|  
A|-2-2---2---2-2-5--2-2-2--4-4-4-----------|  
E|------------------0-0-0--2-2-2-----------|  
   1   2   3   4  

Primeira parte: Najeneun ddasarowun inganjeogin yeoja Keopi hanjaneui yeoyureul Aneun pumgyeok ittneun yeoja Bami omyeon shimjangi Ddeugeowojineun yeoja Geureon banjeon ittneun yeoja Naneun sanai Najeneun neomankeum Ddasarowun geureon sanai Keopi shikgido jeone wonsyat Ddaerineun sanai Bami omyeon shimjangi Teojyeobeorineun sanai Geureon sanai Pré-refrão: G5 A5 Aremdawo sarangseurowo B5 Geurae neo hey, geurae baro neo hey G5 A5 Areumdawo sarangseurowo F#5 Geurae neo hey, geurae baro neo hey Jigeumbuteo gal ddaekkaji gabolkka
   G5              A5  
e|-----------------------------------------|  
B|-----------------------------------------|  
G|-----------------------------------------|  
D|-----------------------------------------|  
A|-5-5---5---5---5-7-7---7---7---7---------|  
E|-3-3---3---3---3-5-5---5---5---5---------|  
   1   2   3   4   5   6   7   8  

   B5  
e|-----------------------------------------|  
B|-----------------------------------------|  
G|-----------------------------------------|  
D|-----------------------------------------|  
A|-9-9---9---9---9-9-9---9---9---9---------|  
E|-7-7---7---7---7-7-7---7---7---7---------|  
   1   2   3   4   5   6   7   8  

   F#5  
e|-----------------------------------------|  
B|-----------------------------------------|  
G|-----------------------------------------|  
D|-----------------------------------------|  
A|-4-4---4---4---4-4-4---4---4---4---------|  
E|-2-2---2---2---2-2-2---2---2---2---------|  
   1   2   3   4   5   6   7   8  

   F#5  
e|-----------------------------------------|  
B|-----------------------------------------|  
G|-----------------------------------------|  
D|-----------------------------------------|  
A|-4---4---4---4---4---4---4---4-----------|  
E|-2---2---2---2---2---2---2---2-----------|  
   1   2   3   4   5   6   7   8  
Oppan Gangnam style Oppan Gangnam style Gangnam style Oppan Gangnam style Eh Sexy Lady Oppan Gangnam style Eh Sexy Lady, oh oh Eh eh eh eh
Segunda Parte: Jeongsokhae boijiman nol Dddaen noneun yeoja Iddaeda shipeumyeon mukkeottdeon Meori puneun yeoja Garyeottjiman wenmanhan Nochulboda yahan yeoja Geureon gangjakjeogin yeoja Naneun sanai Jeonjanha boijiman nol Ddaen noneun sanai Ddaega dweimyeon wanjeon Michyeobeorineun sanai Geunyukboda sasangi Ultungbultung han sanai Geureon sanai Pré-refrão: G5 A5 Aremdawo sarangseurowo B5 Geurae neo hey, geurae baro neo hey G5 A5 Areumdawo sarangseurowo F#5 Geurae neo hey, geurae baro neo hey Jigeumbuteo gal ddaekkaji gabolkka
Oppan Gangnam style Gangnam style Oppan Gangnam style Gangnam style Oppan Gangnam style Eh Sexy Lady Oppan Gangnam style Eh Sexy Lady, oh oh Eh eh eh eh
Terceira Parte: Ttwineun nom geu wie naneun nom Baby baby Naneun mwol jom aneun nom Ttwineun nom geu wie naneun nom Baby baby Naneun mwol jom aneun nom You know what I'm saying Oppan Gangnam style
Eh Sexy Lady Oppan Gangnam style Eh Sexy Lady Oppan Gangnam style

roll up this ad to continue

share this page

See Also: