E-Chords
Priscilla Alcântara

Rio De Águas Vivas(Chords)

Priscilla Alcântara

roll up this ad to continue

Key: Bb
Intro:  

Riff 1: Bb5  Ab5  F5  F#5  Bb5  B5 C#5 (4x) 
       
 
e|4\6-6-6-4-------------------| 
B|----------6-6\7-------------| 
G|----------------3-3-3-4\6-6-| 4x  
D|----------------------------|     
A|----------------------------| 
E|----------------------------| 
F# C#9 Ebm Há um rio de águas vivas que não secará B9 Quem beber jamais morrerá F# C#9 Ebm Há dois caminhos para se prosseguir B9 Há duas portas você vai ter que decidir (2x) Riff 2: Bb5 Ab5 F5 F#5 Bb5 B5 C#5 (2x)
 
e|4\6-6-6-4--------------------4\6-6-6-4-------------------| 
B|----------6-6\7------------------------6-6\7-------------| 
G|----------------3-3-3-4\6-6------------------3-3-3-4\6---|  
D|---------------------------------------------3-3-3-4\6---|  
A|---------------------------------------------1-1-1-2\4---| 
E|---------------------------------------------------------| 
Ebm C#9 É preciso acreditar e não fugir B9 C#9 É preciso ter coragem pra subsistir
 
 Ebm            C#9          Riff 3:     G|-3\4-3\4-3\4-3\4-| 
Tempestades que irão surgir              D|-3\4-3\4-3\4-3\4-| 
Ebm C#9 A|-1\4-1\4-1\4-1\4-| Não importa o que fez no passado B9 C#9 Jesus cristo apaga os seus pecados Ebm C#9 B9 Hoje você é livre tente entender C#9 Alguém morreu por você Riff 2: Bb5 Ab5 F5 F#5 Bb5 B5 C#5 (2x)
 
e|4\6-6-6-4--------------------4\6-6-6-4-------------------| 
B|----------6-6\7------------------------6-6\7-------------| 
G|----------------3-3-3-4\6-6------------------3-3-3-4\6---|  
D|---------------------------------------------3-3-3-4\6---|  
A|---------------------------------------------1-1-1-2\4---| 
E|---------------------------------------------------------| 
F# C#9 Ebm Há um rio de águas vivas que não secará B9 Quem beber jamais morrerá F# C#9 Ebm Há dois caminhos para se prosseguir B9 Há duas portas você vai ter que decidir (2x) Riff 2: Bb5 Ab5 F5 F#5 Bb5 B5 C#5 (2x)
 
e|4\6-6-6-4--------------------4\6-6-6-4-------------------| 
B|----------6-6\7------------------------6-6\7-------------| 
G|----------------3-3-3-4\6-6------------------3-3-3-4\6---|  
D|---------------------------------------------3-3-3-4\6---|  
A|---------------------------------------------1-1-1-2\4---| 
E|---------------------------------------------------------| 
Ebm C#9 É preciso acreditar e não fugir B9 C#9 É preciso ter coragem pra subsistir
 
 Ebm            C#9          Riff 3   G|3\4-3\4-3\4-3\4-| 
Tempestades que irão surgir          D|3\4-3\4-3\4-3\4-| 
Ebm C#9 A|1\4-1\4-1\4-1\4-| Não importa o que fez no passado B9 C#9 Jesus cristo apaga os seus pecados Uhoo ( Ebm5 F5 F#5 Bb5 B5 C#5 F#5 F5 ) 2x
 
E|--------------------------------------------------------------------------------------| 
B|--------------------------------------------------------------------------------------| 
G|6\8-8-8-8-8-8-8-8-8\10-10-10-10-10\11-11-----------------------------------11-11-10-10| 
D|-----------------------------------------8-8-9-9-9-9-9-9-9-9-9\11-11-11-11------------| 
A|--------------------------------------------------------------------------------------| 
E|--------------------------------------------------------------------------------------| 
( Ebm5 C#5 B5 C#5 )
 
E|-------------------------------------------------------------------------------------| 
B|9\11-11-11-11-11-11-11-9\11-11-11-11-11-11-11-9\11-11-11-11-11-11-11-9-9-9-9-7-7-6-6-| 
G|-------------------------------------------------------------------------------------| 
D|-------------------------------------------------------------------------------------| 
A|-------------------------------------------------------------------------------------| 
E|-------------------------------------------------------------------------------------| 
 
E|---------------------------------------------------------------------11~-11\13~-13\14~-14\16~-14~~-| 
B|9\11-11-11-11-11-11-11-9\11-11-11-11-11-11-11-9\11-11-11-11-11-11-11-------------------------------| 
G|---------------------------------------------------------------------------------------------------| 
D|---------------------------------------------------------------------------------------------------| 
A|---------------------------------------------------------------------------------------------------| 
E|---------------------------------------------------------------------------------------------------| 
Ebm C#9 B9 Acredite existe um lugar C#9 Onde lágrimas e dor não haverá (6x) Riff 2: Bb5 Ab5 F5 F#5 Bb5 B5 C#5 (3x) Bb5 Ab5 F5 F#5
 
e|4\6-6-6-4-------------------|       e|4\6-6-6-4-------| 
B|----------6-6\7-------------|       B|----------6-6\7-| 
G|----------------3-3-3-4\6-6-| 3x    G|----------------| 
D|----------------------------|       D|----------------|     
A|----------------------------|       A|----------------| 
E|----------------------------|       E|----------------|
share this page

See Also: