E-Chords
Primatas Suburbanos

Primatas Suburbanos(Chords)

Primatas Suburbanos

Key: E
Int1 


 
E|--------------------------------- 
B|--------------------------------- 
G|--------------------------------- 
D|---------5-----------------------  2x 
A|-7-7-7-7---7-6-5--5-7-5-7-5-7-5-7 
E|--------------------------------- 

E|--------------------------------- 
B|--------------------------------- 
G|--------------------------------- 
D|--------------------------------- 
A|---------3----------------------- 
E|-5-5-5-5---5-4-3--3-5-3-5-3-5-3-5 
 

 
A|---------3--------- 
E|-5-5-5-5---5-4-3~~- 
 



Int2 

 
          E9            D9 
E|-------------------------------------- 
B|-------------------------------------- 
G|-------------------------------------- 
D|--7/9-9-9-9-9--7--5p7-5p7-5p7-5p7-----    2x 
A|--5/7-7-7-7-7--5--5---5---5---5------- 
E|-------------------------------------- 
 

 
         A9            G9 
E|---------------------------------- 
B|---------------------------------- 
G|----------------------------------       2x 
D|---------------------------------- 
A|-5/7-7-7-7-7-5--3p5-3p5-3p5-3p5---- 
E|-3/5-5-5-5-5-3--3---3---3---3------ 
 
E9 D9 Toda vez que dirijo o meu carro E9 D9 Com a rapaziada da banda ao lado A9 G Vejo que o mundo inteiro mudou A9 * Primeiro verso abafado Pelo retrovisor eu mando um 'alô' * No final de todos os versos a pausa. E9 D9 Logo Mando um Rock bolado E9 D9 Os coroa fica tudo pirado A9 G Então vem na Imaginação A Que o mundo inteiro está em nossas mãos A9 C9 G9 E9 - G9 - G# Todo dia de manha,uma historia pra contar A9 C9 G9 E9 - G9 - G# Noite de farra com os amigos,para aproveitar A9 C9 G9 Que nada dura pra sempre e com a gente é diferente E9 - G9 - G# Pode se acostumar. E9 D9 * Abafado Quando fumo meu cigarro E9 D9 O mundo inteiro ficando rodado A9 G9 Vejo o cara com a pinga na mão A9 e um churrasco do bom E9 D9 Meus amigos é tudo pirado E9 D9 Musiquinha de amor é o ... A9 G9 Veja como estamos doidão A9 Primatas Suburbanos Irmão
Solo          * O Baixo faz a Oitavada seguindo a guitarra. 


 
E|-------------------------------------------------------------------- 
B|-------------------------------------------------------------------- 
G|-7/9-9-9-9--9/11-11-11-11-11-11/12-12-12-12-12--12/14-14-14-14-14--- 
D|-x-x-x-x-x---x---x--x--x--x---x----x--x--x--x-----x----x--x--x--x--- 2x 
A|-5/7-7-7-7--7/9--9--9--9--9--9/10-10-10-10-10--10/12--12-12-12-12--- 
E|-------------------------------------------------------------------- 
 

            E9                          D9 

 
E|------------------12------------------------------------------ 
B|-15b16b15-12-15b17--15-12------------------------------------- 
G|-14b15b14-----------------14-12---12--14b16b14-12-12---------- 
D|--------------------------------14-------------------15-12-15- 
A|-------------------------------------------------------------- 
E|-------------------------------------------------------------- 
 

            A9                         G9 

 
E|------------------------------------------------------------------- 
B|-------------------------------------------------------------------- 
G|--------------------------12~---12-15--12p15b17b15-12-15~~---------- 
D|-------12-------14~-12-14----14------------------------------------ 
A|-12-15----15-12---------------------------------------------------- 
E|------------------------------------------------------------------- 
 

          E9                            D9 

 
E|---------------12-12------12-12-------12-12-------12-12-----12--15b17b15-12------------- 
B|-------12-14b16-----12b16-------12b16-------12b16--------15-----------------15-12------ 
G|-12/14----------------------------------------------------------------------------15--- 
D|--------------------------------------------------------------------------------------- 
A|----------------------------------------------------------------------------------------- 
E|---------------------------------------------------------------------------------------- 
 

           A9                          G9 

 
E|---------------------------------------------------------------------------- 
B|----------------12-12-------12-12-------12-12-------12-12-------12-15~~------ 
G|-------12-14b16-------14b16-------14b16-------14b16-------14b16-------------- 
D|-12/14---------------------------------------------------------------------- 
A|--------------------------------------------------------------------------- 
E|------------------------------------------------------------------------------ 
 
E9 D9 Meus amigos é tudo pirado E9 D9 Musiquinha de amor é o ... A9 G9 Veja como estamos doidão A9 Primatas Suburbanos Irmão A9 C9 G9 E9 - G9 - G# Todo dia de manha,uma historia pra contar A9 C9 G9 E9 - G9 - G# Noite de farra com os amigos,para aproveitar A9 C9 G9 Que nada dura pra sempre e com a gente é diferente E9 - G9 - G# Pode se acostumar A9 C9 G9 Que nada dura pra sempre e com a gente é diferente E9 - G9 - G# Pode se acostumar.

roll up this ad to continue

share this page

See Also: