E-Chords
Primatas Suburbanos

Jesus Rock N' Roll(Chords)

Primatas Suburbanos

Key: D
Intro: 

Baixo 

 
A|-5p7-7-7-7-7- 10x 
 


E|------ 
B|------ 
G|-(7)-- 
D|-(7)-- 
A|-(5)-- 
E|------ 



E|------------------ 
B|------------------ 
G|------------------ 
D|-5/7-7-7-7-7-5-2--  4x 
A|-3/5-5-5-5-5-3-0-- 
E|------------------ 
D9 C9 - A9 Jesus o salvador inventou o rock and roll pra ninguem ficar na merda D9 C9 - A9 Muito tempo se passou todo mundo se calou e Teobaldo dominou a terra E9 D9 C9 B9 Mas se voc no viu vale apena esperar E9 D9 B9 C9 Jesus ressucitou e o Rock vai voltar A9 C9 D9 Jesus rock n' roll A9 C9 Jesus rock n' roll A9 C9 D9 Jesus rock n' roll
 
E|------------------------ 
B|------------------------ 
G|------------------------ 
D|-9-9-7------------------ 
A|-------9-6-7-5-7-5------ 
E|-------------------7-6-5 
 


 
E|------------------ 
B|------------------ 
G|------------------ 
D|-5/7-7-7-7-7-5-2--  4x 
A|-3/5-5-5-5-5-3-0-- 
E|------------------ 
D9 C9 - A9 Madalena lhe falou: vem pra cama meu amor e acabou com a sua graa D9 C9 - A9 Teobaldo metaleiro um barbudo maconheiro vai invadir a sua casa E9 D9 C9 B9 Mas se voc no viu vale apena esperar E9 D9 B9 C9 Jesus ressucitou e o Rock vai voltar A9 C9 D9 Jesus rock n' roll A9 C9 Jesus rock n' roll A9 C9 D9 Jesus rock n' roll
 
E|------------------------ 
B|------------------------ 
G|------------------------ 
D|-9-9-7------------------ 
A|-------9-6-7-5-7-5------ 
E|-------------------7-6-5 
C9 D9 A9 C9 2x C9 D9 A9 C9 Judas chegou na hora certa pra tirar o Teobaldo da terra Judas chegou na hora certa pra tirar o Teobaldo da terra E9 D9 C9 B9 Agora voce ja viu, valeu apena esperar E9 D9 B9 C9 Jesus ressucitou e o rock vai voltar A9 C9 D9 Jesus rock n' roll A9 C9 Jesus rock n' roll A9 C9 D9 Jesus rock n' roll
E|------------------------ 
B|------------------------ 
G|------------------------ 
D|-9-9-7------------------ 
A|-------9-6-7-5-7-5------ 
E|-------------------7-6-5 
A9 C9 D9 Jesus rock n' roll A9 C9 Jesus rock n' roll A9 C9 D9 Jesus rock n' roll
E|------------------------ 
B|------------------------ 
G|------------------------ 
D|-9-9-7------------------ 
A|-------9-6-7-5-7-5------ 
E|-------------------7-6-5 



E|----- 
B|-5~~- 
G|-5-~~ 
D|-4~~- 
A|-5~~- 
E|-----

roll up this ad to continue

share this page

See Also: