E-Chords
Planet Of Zeus

A Girl Named Greed(Chords)

Planet Of Zeus

roll up this ad to continue

Key: C#
Drop C# tuning 

riff-Chorus 

-------------------------------------------------| 
------(10)//-------------------(10)//-(10h12-10)-| 
-------10///--------------------10///--10h12-10--| 
-------10///--------------------10///--10h12-10--| 
-------------------3-0-3s5-s3--------------------| 
-3b4-0------0--3-5------------0------0-----------| x4 

verse 1 

-------------------------------------------------------| 
-------------------------------------------------------| 
---5------------5-----------5------------5s7-5---------| 
---3------------3-----------3--0-3b3.5-0-------7-5-3---| 
-----------------------------------------------------5-| 
-0----0-3b3.5-0---0-3b3.5-0----------------------------| x8 

Pre-Chorus 

---------------------------| 
---------------------------| 
---------------------------| 
-5~------------------------| 
-5~---0-3-5--0-3-5---------| 
-5~---0-3-5--0-3-5---------| 

Chorus x4 

verse 2 

--------------------------------------------------------------| 
--------------------------------------------------------------| 
--------------------------------------------------------------| 
--------------------------------------------------------------| 
-3-5------------3-5------------3-5------------3s5--3-0--------| 
------0-3b3.5-0------0-3b3.5-0------0-3b3.5-0----------5-3-0--| x4 

Pre-Chorus 

Chorus x4 

bridge 

----------------------/-----------------------| 
----------------------/-----------------------| 
------------------5-7-/-----------------5-7---| 
------------------5-7-/-----------------5-7---| 
-5-5-5p3p0-(x15)--3-5-/-5-5-5p3p0-(x7)--3-5---| 
----------------------/-----------------------| x2 

same with 2nd guitar    end on 

---------------------   ---------------------------------| 
---------------------   ---------------------------------| 
-----------------5-7-   ---------------------------------| 
-----------(x7)--5-7-   ---------------------------------| 
-8-8-8p7p0-------3-5-   --12p10s8h10p8s7h8p7s5h7p5s3h5~--| 
---------------------   ---------------------------------| 

interlude 

-----------------------------------------------------| 
-----------------------------------------------------| 
-----------------------------------------------------| 
-----------------------------------------------------| 
-8-8-8p7p0-(x4)-10-10-10p8p0-(x4)-12-12-12p10p0-(x2)-| 
-----------------------------------------------------| 

--------------------------------------------------------------------| 
--------------------------------------------------------------------| 
--------------------------------------------------------------------| 
--------------------------------------------------------------------| 
-13-13-13p12p0-(x2)-15-15-15p13p0-16-16-16p15p0-17-17-17p15p0-------|(x2) 
--------------------------------------------------------------------| x2 


breakdown 

----------------------------------------------| 
----------------------------------------------| 
----------------5-7-----------------5-7-------| 
----------------5-7-----------------5-7-------| 
-5-5-5p3p0-(x3)-3-5--5-5-5p3p0-(x3)-3-5-------| 
----------------------------------------------| 

----------------------------------------------| 
----------------------------------------------| 
-----------5-7------------5-7--5-7--5-7--5-7--| 
-----------5-7------------5-7--5-7--5-7--5-7--| 
-5-5-5p3p0-3-5--5-5-5p3p0-3-5--3-5--3-5--3-5--| 
----------------------------------------------| 

end with riff 
share this page

See Also: