E-Chords
Pipettes

Because It's Not Love (but It's Still A Feeling)(Chords)

Pipettes

roll up this ad to continue

Key: C#
Bass riff  
 
e|---------------------------------------------------------| 
B|---------------------------------------------------------| 
G|---------------------------------------------------------| 
D|---------------------------------------------------------| 
A|---1---3---4---4------4---3---1----1---------------------| 
E|---------------------------------------------------------|
C# Bbm I don't want to fall in love C# Bbm F# I don't want to see the stars up above in the sky Ab I just wanna catch your eye Octaves on 5th and 3rd strings Ab - F# - F - Eb C# Bbm I don't want to be wined and dined C# Bbm F# I just want to bump and grind with you here tonight Ab Because you move so right C# And we dance (dance) Bbm And we move a little closer C# Dance (dance) Bbm Oh yeah with that triple motion C# Dance (dance) Bbm And we move a little closer F# Touch a little tighter Ab Eyes a little brighter Cm Bbm Ab Fm Bbm Because it's not love F# G# But it's still a feeling Bbm F# No it's not love Ab But my body's reeling To move closer next to you C# - Bbm X2 Riff
 
e|------------------------------------------------------------| 
B|----------------------------6h7--6--------------------------| 
G|-----------6---8---6--------6----------8----6-------6-------| 
D|-------/8--------------8-------------------------8----------| 
A|------------------------------------------------------------| 
E|------------------------------------------------------------|
C# Bbm I don't want to hold your hand C# Bbm F# I don't want to go walking in the sand every day Ab So won't you come out to play C# Bbm And i don't care what people say C# Bbm F# I don't care what your friends will think anyhow Ab 'cos you've got me here right now. C# And we dance (dance) Bbm And we move a little closer C# Dance (dance) Bbm Oh yeah with that shuffle motion C# Dance (dance) Bbm And we move a little closer F# Touch a little tighter Ab Eyes a little brighter Cm Bbm Ab Fm Bbm Because it's not love F# G# But it's still a feeling Bbm F# No it's not love Ab But my body's reeling To move closer next to you C# - Bbm with riff variations to end
share this page

See Also: