E-Chords
Pillows

I Think I Can(Chords)

Pillows

Key: E
intro 
-0--1---1-3-1-0--  
-0--1---1-3-1-0--  
-1--2---2-4-2-1--  
-2--3---3-5-3-2--  
-2--3---3-5-3-2--  
-0--1---1-3-1-0--  
 E  F   E G F E 


Verse 
------------------------  
------------------------  
------------------------ 
----11--9--7-----7------  
-7---9--7--5--9--5--9---  
-5------------7-----7---  
 A  F#  E  D  B  D  B 

Chorus 
-------------------------  
-------------------------  
-------------------------  
----6--7--9--10--12--14--  
-7--4--5--7---8--10--12--  
-5-----------------------  
 A  C# D  E   F  G   A 



solo 
-(17----17-17-----)----------------------------------------------------- 
--17-14-14-14----------------------------------------------------------- 
--------14-14-14-9)----------------------------------------------------- 
------------------------0-2b-0----0------------------------------------- 
--------------------4-----------4---4-2-0--2-4-0----4---5-----7--------- 
--------------------------------------------------5---5----s9---9-10-9-- 

--------------------------------------------s5-------------  
-----------------------------------------------------------  
-7-7-6-7--7-7-6-7--7-7-6-7--s9-6-7-6--7-7-6----7-6-4-2-4-6-  
-----------------------------------------------------------  
----------------------------------------------------------- 
-----------------------------------------------------------  

-9-9-9-9-9-9---9-9-9-9-9-9-----9---10--12-------- 
-------------8------------8---------------------- 
-----------------------------9---9---9-----s11-9- 
-------------------------------------------s11-9- 
------------------------------------------------- 
------------------------------------------------- 

---s10-----s10----s10---12-12-10-9-10-9-7--  
---s10-----s10----s10----------------------  
-------------------------------------------  
-7--------------7--------------------------  
-5------9-------5--------------------------  
--------7----------------------------------
example verse/ Chorus A Nitemo nitsukanai hutago no kimi F# E D d˘shitandai D B kutsuhimo sae D B modokeppa nashi no mama uwa no sora A Machi kamaeteru HYENA no KISS F# E D kanippatsu D B dare no me ni mo D B oyoso hukan˘ na BET tanoshi mitai na A C# D I think I can E F I think I can G A I think I can (ending goes like A C# D I think I can E F I think I can G A I think I can C# D I think I can E F I think I can G A I think I can) C# D I think I can E F I think I can G A I think I can )

roll up this ad to continue

share this page

See Also: